ISO-10303-21;
HEADER;
/* Generated by software containing ST-Developer
 * from STEP Tools, Inc. (www.steptools.com) 
 */
/* OPTION: using custom schema-name function */

FILE_DESCRIPTION(
/* description */ (''),
/* implementation_level */ '2;1');

FILE_NAME(
/* name */ 'Powder Container 3.8L.stp',
/* time_stamp */ '2022-06-10T08:51:49+02:00',
/* author */ (''),
/* organization */ (''),
/* preprocessor_version */ 'ST-DEVELOPER v18.1',
/* originating_system */ 'SIEMENS PLM Software NX 1973',
/* authorisation */ '');

FILE_SCHEMA (('AUTOMOTIVE_DESIGN { 1 0 10303 214 3 1 1 1 }'));
ENDSEC;

DATA;
#10=SHAPE_REPRESENTATION_RELATIONSHIP('None',
'relationship between 590782_00_Powder Container 3800cm3-None and 5907
82_00_Powder Container 3800cm3-None',#22,#11);
#11=ADVANCED_BREP_SHAPE_REPRESENTATION(
'590782_00_Powder Container 3800cm3-None',(#32),#605);
#12=SHAPE_DEFINITION_REPRESENTATION(#13,#22);
#13=PRODUCT_DEFINITION_SHAPE('','',#14);
#14=PRODUCT_DEFINITION(' ','',#16,#15);
#15=PRODUCT_DEFINITION_CONTEXT('part definition',#21,'design');
#16=PRODUCT_DEFINITION_FORMATION_WITH_SPECIFIED_SOURCE(' ',' ',#18,
 .NOT_KNOWN.);
#17=PRODUCT_RELATED_PRODUCT_CATEGORY('part','',(#18));
#18=PRODUCT('590782_00_Powder Container 3800cm3',
'590782_00_Powder Container 3800cm3',' ',(#19));
#19=PRODUCT_CONTEXT(' ',#21,'mechanical');
#20=APPLICATION_PROTOCOL_DEFINITION('international standard',
'automotive_design',2010,#21);
#21=APPLICATION_CONTEXT(
'core data for automotive mechanical design processes');
#22=SHAPE_REPRESENTATION('590782_00_Powder Container 3800cm3-None',(#344),
#605);
#23=PRESENTATION_LAYER_ASSIGNMENT('1','Layer 1',(#32));
#24=STYLED_ITEM('',(#25),#32);
#25=PRESENTATION_STYLE_ASSIGNMENT((#26));
#26=SURFACE_STYLE_USAGE(.BOTH.,#27);
#27=SURFACE_SIDE_STYLE('',(#28));
#28=SURFACE_STYLE_FILL_AREA(#29);
#29=FILL_AREA_STYLE('',(#30));
#30=FILL_AREA_STYLE_COLOUR('',#31);
#31=COLOUR_RGB('orange',1.,0.500007629510948,0.);
#32=MANIFOLD_SOLID_BREP('',#33);
#33=CLOSED_SHELL('',(#60,#61,#62,#63,#64,#65,#66,#67,#68,#69,#70,#71,#72,
#73,#74,#75,#76,#77,#78,#79,#80,#81,#82,#83,#84,#85,#86,#87,#88));
#34=CYLINDRICAL_SURFACE('',#359,68.);
#35=CYLINDRICAL_SURFACE('',#366,20.5);
#36=CYLINDRICAL_SURFACE('',#372,27.5);
#37=CYLINDRICAL_SURFACE('',#381,20.6);
#38=CYLINDRICAL_SURFACE('',#397,65.0914315428189);
#39=CYLINDRICAL_SURFACE('',#400,18.5);
#40=PLANE('',#351);
#41=PLANE('',#354);
#42=PLANE('',#357);
#43=PLANE('',#369);
#44=PLANE('',#376);
#45=PLANE('',#380);
#46=PLANE('',#383);
#47=FACE_OUTER_BOUND('',#152,.T.);
#48=FACE_OUTER_BOUND('',#183,.T.);
#49=TOROIDAL_SURFACE('',#349,54.0717967697245,7.);
#50=TOROIDAL_SURFACE('',#360,63.5,4.5);
#51=TOROIDAL_SURFACE('',#361,20.8221772953084,7.);
#52=TOROIDAL_SURFACE('',#362,62.1958351743605,1.5);
#53=TOROIDAL_SURFACE('',#377,26.5,1.);
#54=TOROIDAL_SURFACE('',#385,22.2373182106302,7.);
#55=TOROIDAL_SURFACE('',#389,53.6309956591755,4.7944806937027);
#56=TOROIDAL_SURFACE('',#391,62.1577940162663,3.84567743650237);
#57=TOROIDAL_SURFACE('',#393,62.6981968180892,1.58299118096749);
#58=TOROIDAL_SURFACE('',#395,60.8569090994319,4.23452244338721);
#59=TOROIDAL_SURFACE('',#401,26.5,1.);
#60=ADVANCED_FACE('',(#94,#95),#89,.F.);
#61=ADVANCED_FACE('',(#96,#97),#49,.T.);
#62=ADVANCED_FACE('',(#47),#40,.T.);
#63=ADVANCED_FACE('',(#98,#99),#41,.F.);
#64=ADVANCED_FACE('',(#100,#101),#42,.F.);
#65=ADVANCED_FACE('',(#102,#103),#34,.T.);
#66=ADVANCED_FACE('',(#104,#105),#50,.T.);
#67=ADVANCED_FACE('',(#106,#107),#51,.F.);
#68=ADVANCED_FACE('',(#108,#109),#52,.F.);
#69=ADVANCED_FACE('',(#110,#111),#90,.T.);
#70=ADVANCED_FACE('',(#112,#113),#35,.T.);
#71=ADVANCED_FACE('',(#114,#115),#43,.T.);
#72=ADVANCED_FACE('',(#116,#117),#36,.T.);
#73=ADVANCED_FACE('',(#118,#119),#91,.T.);
#74=ADVANCED_FACE('',(#120,#121),#44,.T.);
#75=ADVANCED_FACE('',(#122,#123),#53,.T.);
#76=ADVANCED_FACE('',(#124,#125),#45,.F.);
#77=ADVANCED_FACE('',(#126,#127),#37,.F.);
#78=ADVANCED_FACE('',(#48),#46,.T.);
#79=ADVANCED_FACE('',(#128,#129),#54,.T.);
#80=ADVANCED_FACE('',(#130,#131),#92,.T.);
#81=ADVANCED_FACE('',(#132,#133),#55,.F.);
#82=ADVANCED_FACE('',(#134,#135),#56,.T.);
#83=ADVANCED_FACE('',(#136,#137),#57,.F.);
#84=ADVANCED_FACE('',(#138,#139),#58,.F.);
#85=ADVANCED_FACE('',(#140,#141),#38,.F.);
#86=ADVANCED_FACE('',(#142,#143),#93,.F.);
#87=ADVANCED_FACE('',(#144,#145),#39,.F.);
#88=ADVANCED_FACE('',(#146,#147),#59,.T.);
#89=CONICAL_SURFACE('',#347,23.5,48.1316864931901);
#90=CONICAL_SURFACE('',#364,64.9999999999998,56.0138328903517);
#91=CONICAL_SURFACE('',#375,27.5,75.0000000000003);
#92=CONICAL_SURFACE('',#387,25.0000000000004,46.9247915580717);
#93=CONICAL_SURFACE('',#399,65.0914315428187,55.9377683147256);
#94=FACE_BOUND('',#148,.T.);
#95=FACE_BOUND('',#149,.T.);
#96=FACE_BOUND('',#150,.T.);
#97=FACE_BOUND('',#151,.T.);
#98=FACE_BOUND('',#153,.T.);
#99=FACE_BOUND('',#154,.T.);
#100=FACE_BOUND('',#155,.T.);
#101=FACE_BOUND('',#156,.T.);
#102=FACE_BOUND('',#157,.T.);
#103=FACE_BOUND('',#158,.T.);
#104=FACE_BOUND('',#159,.T.);
#105=FACE_BOUND('',#160,.T.);
#106=FACE_BOUND('',#161,.T.);
#107=FACE_BOUND('',#162,.T.);
#108=FACE_BOUND('',#163,.T.);
#109=FACE_BOUND('',#164,.T.);
#110=FACE_BOUND('',#165,.T.);
#111=FACE_BOUND('',#166,.T.);
#112=FACE_BOUND('',#167,.T.);
#113=FACE_BOUND('',#168,.T.);
#114=FACE_BOUND('',#169,.T.);
#115=FACE_BOUND('',#170,.T.);
#116=FACE_BOUND('',#171,.T.);
#117=FACE_BOUND('',#172,.T.);
#118=FACE_BOUND('',#173,.T.);
#119=FACE_BOUND('',#174,.T.);
#120=FACE_BOUND('',#175,.T.);
#121=FACE_BOUND('',#176,.T.);
#122=FACE_BOUND('',#177,.T.);
#123=FACE_BOUND('',#178,.T.);
#124=FACE_BOUND('',#179,.T.);
#125=FACE_BOUND('',#180,.T.);
#126=FACE_BOUND('',#181,.T.);
#127=FACE_BOUND('',#182,.T.);
#128=FACE_BOUND('',#184,.T.);
#129=FACE_BOUND('',#185,.T.);
#130=FACE_BOUND('',#186,.T.);
#131=FACE_BOUND('',#187,.T.);
#132=FACE_BOUND('',#188,.T.);
#133=FACE_BOUND('',#189,.T.);
#134=FACE_BOUND('',#190,.T.);
#135=FACE_BOUND('',#191,.T.);
#136=FACE_BOUND('',#192,.T.);
#137=FACE_BOUND('',#193,.T.);
#138=FACE_BOUND('',#194,.T.);
#139=FACE_BOUND('',#195,.T.);
#140=FACE_BOUND('',#196,.T.);
#141=FACE_BOUND('',#197,.T.);
#142=FACE_BOUND('',#198,.T.);
#143=FACE_BOUND('',#199,.T.);
#144=FACE_BOUND('',#200,.T.);
#145=FACE_BOUND('',#201,.T.);
#146=FACE_BOUND('',#202,.T.);
#147=FACE_BOUND('',#203,.T.);
#148=EDGE_LOOP('',(#204));
#149=EDGE_LOOP('',(#205));
#150=EDGE_LOOP('',(#206));
#151=EDGE_LOOP('',(#207));
#152=EDGE_LOOP('',(#208));
#153=EDGE_LOOP('',(#209));
#154=EDGE_LOOP('',(#210));
#155=EDGE_LOOP('',(#211));
#156=EDGE_LOOP('',(#212));
#157=EDGE_LOOP('',(#213));
#158=EDGE_LOOP('',(#214));
#159=EDGE_LOOP('',(#215));
#160=EDGE_LOOP('',(#216));
#161=EDGE_LOOP('',(#217));
#162=EDGE_LOOP('',(#218));
#163=EDGE_LOOP('',(#219));
#164=EDGE_LOOP('',(#220));
#165=EDGE_LOOP('',(#221));
#166=EDGE_LOOP('',(#222));
#167=EDGE_LOOP('',(#223));
#168=EDGE_LOOP('',(#224));
#169=EDGE_LOOP('',(#225));
#170=EDGE_LOOP('',(#226));
#171=EDGE_LOOP('',(#227));
#172=EDGE_LOOP('',(#228));
#173=EDGE_LOOP('',(#229));
#174=EDGE_LOOP('',(#230));
#175=EDGE_LOOP('',(#231));
#176=EDGE_LOOP('',(#232));
#177=EDGE_LOOP('',(#233));
#178=EDGE_LOOP('',(#234));
#179=EDGE_LOOP('',(#235));
#180=EDGE_LOOP('',(#236));
#181=EDGE_LOOP('',(#237));
#182=EDGE_LOOP('',(#238));
#183=EDGE_LOOP('',(#239));
#184=EDGE_LOOP('',(#240));
#185=EDGE_LOOP('',(#241));
#186=EDGE_LOOP('',(#242));
#187=EDGE_LOOP('',(#243));
#188=EDGE_LOOP('',(#244));
#189=EDGE_LOOP('',(#245));
#190=EDGE_LOOP('',(#246));
#191=EDGE_LOOP('',(#247));
#192=EDGE_LOOP('',(#248));
#193=EDGE_LOOP('',(#249));
#194=EDGE_LOOP('',(#250));
#195=EDGE_LOOP('',(#251));
#196=EDGE_LOOP('',(#252));
#197=EDGE_LOOP('',(#253));
#198=EDGE_LOOP('',(#254));
#199=EDGE_LOOP('',(#255));
#200=EDGE_LOOP('',(#256));
#201=EDGE_LOOP('',(#257));
#202=EDGE_LOOP('',(#258));
#203=EDGE_LOOP('',(#259));
#204=ORIENTED_EDGE('',*,*,#288,.T.);
#205=ORIENTED_EDGE('',*,*,#289,.F.);
#206=ORIENTED_EDGE('',*,*,#290,.T.);
#207=ORIENTED_EDGE('',*,*,#289,.T.);
#208=ORIENTED_EDGE('',*,*,#291,.T.);
#209=ORIENTED_EDGE('',*,*,#292,.T.);
#210=ORIENTED_EDGE('',*,*,#293,.T.);
#211=ORIENTED_EDGE('',*,*,#294,.F.);
#212=ORIENTED_EDGE('',*,*,#295,.T.);
#213=ORIENTED_EDGE('',*,*,#296,.T.);
#214=ORIENTED_EDGE('',*,*,#295,.F.);
#215=ORIENTED_EDGE('',*,*,#296,.F.);
#216=ORIENTED_EDGE('',*,*,#293,.F.);
#217=ORIENTED_EDGE('',*,*,#291,.F.);
#218=ORIENTED_EDGE('',*,*,#288,.F.);
#219=ORIENTED_EDGE('',*,*,#292,.F.);
#220=ORIENTED_EDGE('',*,*,#290,.F.);
#221=ORIENTED_EDGE('',*,*,#297,.F.);
#222=ORIENTED_EDGE('',*,*,#294,.T.);
#223=ORIENTED_EDGE('',*,*,#297,.T.);
#224=ORIENTED_EDGE('',*,*,#298,.F.);
#225=ORIENTED_EDGE('',*,*,#299,.T.);
#226=ORIENTED_EDGE('',*,*,#300,.T.);
#227=ORIENTED_EDGE('',*,*,#301,.T.);
#228=ORIENTED_EDGE('',*,*,#302,.T.);
#229=ORIENTED_EDGE('',*,*,#303,.T.);
#230=ORIENTED_EDGE('',*,*,#304,.T.);
#231=ORIENTED_EDGE('',*,*,#298,.T.);
#232=ORIENTED_EDGE('',*,*,#304,.F.);
#233=ORIENTED_EDGE('',*,*,#303,.F.);
#234=ORIENTED_EDGE('',*,*,#302,.F.);
#235=ORIENTED_EDGE('',*,*,#305,.T.);
#236=ORIENTED_EDGE('',*,*,#306,.T.);
#237=ORIENTED_EDGE('',*,*,#300,.F.);
#238=ORIENTED_EDGE('',*,*,#306,.F.);
#239=ORIENTED_EDGE('',*,*,#307,.T.);
#240=ORIENTED_EDGE('',*,*,#307,.F.);
#241=ORIENTED_EDGE('',*,*,#308,.F.);
#242=ORIENTED_EDGE('',*,*,#308,.T.);
#243=ORIENTED_EDGE('',*,*,#309,.F.);
#244=ORIENTED_EDGE('',*,*,#310,.F.);
#245=ORIENTED_EDGE('',*,*,#309,.T.);
#246=ORIENTED_EDGE('',*,*,#311,.F.);
#247=ORIENTED_EDGE('',*,*,#310,.T.);
#248=ORIENTED_EDGE('',*,*,#312,.F.);
#249=ORIENTED_EDGE('',*,*,#311,.T.);
#250=ORIENTED_EDGE('',*,*,#313,.F.);
#251=ORIENTED_EDGE('',*,*,#312,.T.);
#252=ORIENTED_EDGE('',*,*,#314,.F.);
#253=ORIENTED_EDGE('',*,*,#313,.T.);
#254=ORIENTED_EDGE('',*,*,#315,.F.);
#255=ORIENTED_EDGE('',*,*,#314,.T.);
#256=ORIENTED_EDGE('',*,*,#305,.F.);
#257=ORIENTED_EDGE('',*,*,#315,.T.);
#258=ORIENTED_EDGE('',*,*,#301,.F.);
#259=ORIENTED_EDGE('',*,*,#299,.F.);
#260=VERTEX_POINT('',#520);
#261=VERTEX_POINT('',#522);
#262=VERTEX_POINT('',#525);
#263=VERTEX_POINT('',#528);
#264=VERTEX_POINT('',#531);
#265=VERTEX_POINT('',#533);
#266=VERTEX_POINT('',#536);
#267=VERTEX_POINT('',#538);
#268=VERTEX_POINT('',#541);
#269=VERTEX_POINT('',#547);
#270=VERTEX_POINT('',#550);
#271=VERTEX_POINT('',#553);
#272=VERTEX_POINT('',#555);
#273=VERTEX_POINT('',#558);
#274=VERTEX_POINT('',#560);
#275=VERTEX_POINT('',#563);
#276=VERTEX_POINT('',#565);
#277=VERTEX_POINT('',#570);
#278=VERTEX_POINT('',#572);
#279=VERTEX_POINT('',#576);
#280=VERTEX_POINT('',#579);
#281=VERTEX_POINT('',#582);
#282=VERTEX_POINT('',#585);
#283=VERTEX_POINT('',#588);
#284=VERTEX_POINT('',#591);
#285=VERTEX_POINT('',#594);
#286=VERTEX_POINT('',#597);
#287=VERTEX_POINT('',#600);
#288=EDGE_CURVE('',#260,#260,#316,.T.);
#289=EDGE_CURVE('',#261,#261,#317,.T.);
#290=EDGE_CURVE('',#262,#262,#318,.T.);
#291=EDGE_CURVE('',#263,#263,#319,.T.);
#292=EDGE_CURVE('',#264,#264,#320,.T.);
#293=EDGE_CURVE('',#265,#265,#321,.T.);
#294=EDGE_CURVE('',#266,#266,#322,.T.);
#295=EDGE_CURVE('',#267,#267,#323,.T.);
#296=EDGE_CURVE('',#268,#268,#324,.T.);
#297=EDGE_CURVE('',#269,#269,#325,.T.);
#298=EDGE_CURVE('',#270,#270,#326,.T.);
#299=EDGE_CURVE('',#271,#271,#327,.T.);
#300=EDGE_CURVE('',#272,#272,#328,.T.);
#301=EDGE_CURVE('',#273,#273,#329,.T.);
#302=EDGE_CURVE('',#274,#274,#330,.T.);
#303=EDGE_CURVE('',#275,#275,#331,.T.);
#304=EDGE_CURVE('',#276,#276,#332,.T.);
#305=EDGE_CURVE('',#277,#277,#333,.T.);
#306=EDGE_CURVE('',#278,#278,#334,.T.);
#307=EDGE_CURVE('',#279,#279,#335,.T.);
#308=EDGE_CURVE('',#280,#280,#336,.T.);
#309=EDGE_CURVE('',#281,#281,#337,.T.);
#310=EDGE_CURVE('',#282,#282,#338,.T.);
#311=EDGE_CURVE('',#283,#283,#339,.T.);
#312=EDGE_CURVE('',#284,#284,#340,.T.);
#313=EDGE_CURVE('',#285,#285,#341,.T.);
#314=EDGE_CURVE('',#286,#286,#342,.T.);
#315=EDGE_CURVE('',#287,#287,#343,.T.);
#316=CIRCLE('',#345,25.4941230636258);
#317=CIRCLE('',#346,49.3998510014072);
#318=CIRCLE('',#348,60.7621813382483);
#319=CIRCLE('',#350,20.8221772953084);
#320=CIRCLE('',#352,62.1958351743605);
#321=CIRCLE('',#353,63.5);
#322=CIRCLE('',#355,64.9999999999998);
#323=CIRCLE('',#356,68.);
#324=CIRCLE('',#358,68.);
#325=CIRCLE('',#363,20.4999999999998);
#326=CIRCLE('',#365,20.5);
#327=CIRCLE('',#367,26.5);
#328=CIRCLE('',#368,20.6);
#329=CIRCLE('',#370,27.5);
#330=CIRCLE('',#371,27.5);
#331=CIRCLE('',#373,26.7588190451025);
#332=CIRCLE('',#374,23.7679491924314);
#333=CIRCLE('',#378,18.5);
#334=CIRCLE('',#379,20.6);
#335=CIRCLE('',#382,22.2373182106302);
#336=CIRCLE('',#384,27.0180226192624);
#337=CIRCLE('',#386,50.3565678035346);
#338=CIRCLE('',#388,58.3625722676232);
#339=CIRCLE('',#390,62.5406162159683);
#340=CIRCLE('',#392,63.9849795337192);
#341=CIRCLE('',#394,65.0914315428191);
#342=CIRCLE('',#396,65.0914315428187);
#343=CIRCLE('',#398,18.5);
#344=AXIS2_PLACEMENT_3D('',#518,#402,#403);
#345=AXIS2_PLACEMENT_3D('',#519,#404,#405);
#346=AXIS2_PLACEMENT_3D('',#521,#406,#407);
#347=AXIS2_PLACEMENT_3D('',#523,#408,#409);
#348=AXIS2_PLACEMENT_3D('',#524,#410,#411);
#349=AXIS2_PLACEMENT_3D('',#526,#412,#413);
#350=AXIS2_PLACEMENT_3D('',#527,#414,#415);
#351=AXIS2_PLACEMENT_3D('',#529,#416,#417);
#352=AXIS2_PLACEMENT_3D('',#530,#418,#419);
#353=AXIS2_PLACEMENT_3D('',#532,#420,#421);
#354=AXIS2_PLACEMENT_3D('',#534,#422,#423);
#355=AXIS2_PLACEMENT_3D('',#535,#424,#425);
#356=AXIS2_PLACEMENT_3D('',#537,#426,#427);
#357=AXIS2_PLACEMENT_3D('',#539,#428,#429);
#358=AXIS2_PLACEMENT_3D('',#540,#430,#431);
#359=AXIS2_PLACEMENT_3D('',#542,#432,#433);
#360=AXIS2_PLACEMENT_3D('',#543,#434,#435);
#361=AXIS2_PLACEMENT_3D('',#544,#436,#437);
#362=AXIS2_PLACEMENT_3D('',#545,#438,#439);
#363=AXIS2_PLACEMENT_3D('',#546,#440,#441);
#364=AXIS2_PLACEMENT_3D('',#548,#442,#443);
#365=AXIS2_PLACEMENT_3D('',#549,#444,#445);
#366=AXIS2_PLACEMENT_3D('',#551,#446,#447);
#367=AXIS2_PLACEMENT_3D('',#552,#448,#449);
#368=AXIS2_PLACEMENT_3D('',#554,#450,#451);
#369=AXIS2_PLACEMENT_3D('',#556,#452,#453);
#370=AXIS2_PLACEMENT_3D('',#557,#454,#455);
#371=AXIS2_PLACEMENT_3D('',#559,#456,#457);
#372=AXIS2_PLACEMENT_3D('',#561,#458,#459);
#373=AXIS2_PLACEMENT_3D('',#562,#460,#461);
#374=AXIS2_PLACEMENT_3D('',#564,#462,#463);
#375=AXIS2_PLACEMENT_3D('',#566,#464,#465);
#376=AXIS2_PLACEMENT_3D('',#567,#466,#467);
#377=AXIS2_PLACEMENT_3D('',#568,#468,#469);
#378=AXIS2_PLACEMENT_3D('',#569,#470,#471);
#379=AXIS2_PLACEMENT_3D('',#571,#472,#473);
#380=AXIS2_PLACEMENT_3D('',#573,#474,#475);
#381=AXIS2_PLACEMENT_3D('',#574,#476,#477);
#382=AXIS2_PLACEMENT_3D('',#575,#478,#479);
#383=AXIS2_PLACEMENT_3D('',#577,#480,#481);
#384=AXIS2_PLACEMENT_3D('',#578,#482,#483);
#385=AXIS2_PLACEMENT_3D('',#580,#484,#485);
#386=AXIS2_PLACEMENT_3D('',#581,#486,#487);
#387=AXIS2_PLACEMENT_3D('',#583,#488,#489);
#388=AXIS2_PLACEMENT_3D('',#584,#490,#491);
#389=AXIS2_PLACEMENT_3D('',#586,#492,#493);
#390=AXIS2_PLACEMENT_3D('',#587,#494,#495);
#391=AXIS2_PLACEMENT_3D('',#589,#496,#497);
#392=AXIS2_PLACEMENT_3D('',#590,#498,#499);
#393=AXIS2_PLACEMENT_3D('',#592,#500,#501);
#394=AXIS2_PLACEMENT_3D('',#593,#502,#503);
#395=AXIS2_PLACEMENT_3D('',#595,#504,#505);
#396=AXIS2_PLACEMENT_3D('',#596,#506,#507);
#397=AXIS2_PLACEMENT_3D('',#598,#508,#509);
#398=AXIS2_PLACEMENT_3D('',#599,#510,#511);
#399=AXIS2_PLACEMENT_3D('',#601,#512,#513);
#400=AXIS2_PLACEMENT_3D('',#602,#514,#515);
#401=AXIS2_PLACEMENT_3D('',#603,#516,#517);
#402=DIRECTION('',(0.,0.,1.));
#403=DIRECTION('',(1.,0.,0.));
#404=DIRECTION('',(0.,1.96005385927235E-15,1.));
#405=DIRECTION('',(0.,1.,-1.90523350052593E-15));
#406=DIRECTION('',(0.,1.96005385927235E-15,1.));
#407=DIRECTION('',(0.,1.,-1.96210458645802E-15));
#408=DIRECTION('',(0.,-1.96005385927235E-15,-1.));
#409=DIRECTION('',(0.,1.,-1.9764348104636E-15));
#410=DIRECTION('',(0.,0.,-1.));
#411=DIRECTION('',(1.,0.,0.));
#412=DIRECTION('',(0.,-1.96005385927235E-15,-1.));
#413=DIRECTION('',(0.,1.,-1.95992137407913E-15));
#414=DIRECTION('',(0.,-1.96005385927235E-15,-1.));
#415=DIRECTION('',(0.,1.,-1.99947214131272E-15));
#416=DIRECTION('',(0.,-1.96005385927235E-15,-1.));
#417=DIRECTION('',(0.,1.,-1.96023752785379E-15));
#418=DIRECTION('',(0.,0.,1.));
#419=DIRECTION('',(1.,0.,0.));
#420=DIRECTION('',(0.,0.,-1.));
#421=DIRECTION('',(1.,0.,0.));
#422=DIRECTION('',(0.,0.,1.));
#423=DIRECTION('',(1.,0.,0.));
#424=DIRECTION('',(0.,1.17145536458252E-15,1.));
#425=DIRECTION('',(0.,-1.,8.54017711250123E-16));
#426=DIRECTION('',(0.,0.,1.));
#427=DIRECTION('',(1.,0.,0.));
#428=DIRECTION('',(0.,0.,-1.));
#429=DIRECTION('',(-1.,0.,0.));
#430=DIRECTION('',(0.,0.,1.));
#431=DIRECTION('',(1.,0.,0.));
#432=DIRECTION('',(0.,0.,1.));
#433=DIRECTION('',(1.,0.,0.));
#434=DIRECTION('',(0.,0.,1.));
#435=DIRECTION('',(1.,0.,0.));
#436=DIRECTION('',(0.,-1.96005385927235E-15,-1.));
#437=DIRECTION('',(0.,1.,-1.99521233158911E-15));
#438=DIRECTION('',(0.,0.,1.));
#439=DIRECTION('',(1.,0.,0.));
#440=DIRECTION('',(0.,1.17145536458252E-15,1.));
#441=DIRECTION('',(0.,-1.,0.));
#442=DIRECTION('',(0.,-1.17145536458252E-15,-1.));
#443=DIRECTION('',(0.,1.,-1.11141809784864E-15));
#444=DIRECTION('',(0.,0.,1.));
#445=DIRECTION('',(1.,0.,0.));
#446=DIRECTION('',(0.,0.,1.));
#447=DIRECTION('',(1.,0.,0.));
#448=DIRECTION('',(0.,0.,1.));
#449=DIRECTION('',(1.,0.,0.));
#450=DIRECTION('',(0.,0.,-1.));
#451=DIRECTION('',(-1.,0.,0.));
#452=DIRECTION('',(0.,0.,1.));
#453=DIRECTION('',(1.,0.,0.));
#454=DIRECTION('',(0.,0.,-1.));
#455=DIRECTION('',(1.,0.,0.));
#456=DIRECTION('',(0.,0.,1.));
#457=DIRECTION('',(-1.,0.,0.));
#458=DIRECTION('',(0.,0.,1.));
#459=DIRECTION('',(1.,0.,0.));
#460=DIRECTION('',(0.,0.,-1.));
#461=DIRECTION('',(-1.,0.,0.));
#462=DIRECTION('',(0.,0.,1.));
#463=DIRECTION('',(1.,0.,0.));
#464=DIRECTION('',(0.,0.,1.));
#465=DIRECTION('',(1.,0.,0.));
#466=DIRECTION('',(0.,0.,-1.));
#467=DIRECTION('',(-1.,0.,0.));
#468=DIRECTION('',(0.,0.,-1.));
#469=DIRECTION('',(-1.,0.,0.));
#470=DIRECTION('',(0.,0.,-1.));
#471=DIRECTION('',(-1.,0.,0.));
#472=DIRECTION('',(0.,0.,1.));
#473=DIRECTION('',(-1.,0.,0.));
#474=DIRECTION('',(0.,0.,-1.));
#475=DIRECTION('',(-1.,0.,0.));
#476=DIRECTION('',(0.,0.,-1.));
#477=DIRECTION('',(-1.,0.,0.));
#478=DIRECTION('',(0.,1.96005385927235E-15,1.));
#479=DIRECTION('',(0.,-1.,2.02824863808606E-15));
#480=DIRECTION('',(0.,1.96005385927235E-15,1.));
#481=DIRECTION('',(0.,-1.,1.96023752785379E-15));
#482=DIRECTION('',(0.,-1.96005385927235E-15,-1.));
#483=DIRECTION('',(0.,-1.,1.92618479200625E-15));
#484=DIRECTION('',(0.,1.96005385927235E-15,1.));
#485=DIRECTION('',(0.,-1.,2.01730534101336E-15));
#486=DIRECTION('',(0.,-1.96005385927235E-15,-1.));
#487=DIRECTION('',(0.,-1.,1.96358176189557E-15));
#488=DIRECTION('',(0.,-1.96005385927235E-15,-1.));
#489=DIRECTION('',(0.,1.,-1.94939364666652E-15));
#490=DIRECTION('',(0.,-1.96005385927235E-15,-1.));
#491=DIRECTION('',(0.,-1.,1.96173240770582E-15));
#492=DIRECTION('',(0.,1.96005385927235E-15,1.));
#493=DIRECTION('',(0.,-1.,1.95962029856568E-15));
#494=DIRECTION('',(0.,-1.96005385927235E-15,-1.));
#495=DIRECTION('',(0.,-1.,1.96936605755582E-15));
#496=DIRECTION('',(0.,1.96005385927235E-15,1.));
#497=DIRECTION('',(0.,-1.,1.9580318446243E-15));
#498=DIRECTION('',(0.,-1.96005385927235E-15,-1.));
#499=DIRECTION('',(0.,-1.,1.95202203986811E-15));
#500=DIRECTION('',(0.,1.96005385927235E-15,1.));
#501=DIRECTION('',(0.,-1.,1.97001358699477E-15));
#502=DIRECTION('',(0.,-1.96005385927235E-15,-1.));
#503=DIRECTION('',(0.,-1.,1.97214186536731E-15));
#504=DIRECTION('',(0.,1.96005385927235E-15,1.));
#505=DIRECTION('',(0.,-1.,1.97214186536731E-15));
#506=DIRECTION('',(0.,-1.96005385927235E-15,-1.));
#507=DIRECTION('',(0.,-1.,1.70563620788525E-15));
#508=DIRECTION('',(0.,1.96005385927235E-15,1.));
#509=DIRECTION('',(0.,-1.,1.97214186536731E-15));
#510=DIRECTION('',(0.,-1.96005385927235E-15,-1.));
#511=DIRECTION('',(0.,-1.,3.00060276925718E-15));
#512=DIRECTION('',(0.,-1.96005385927235E-15,-1.));
#513=DIRECTION('',(0.,1.,-1.90527169656648E-15));
#514=DIRECTION('',(0.,1.96005385927235E-15,1.));
#515=DIRECTION('',(0.,-1.,1.87537673078574E-15));
#516=DIRECTION('',(0.,0.,1.));
#517=DIRECTION('',(1.,0.,0.));
#518=CARTESIAN_POINT('',(0.,0.,0.));
#519=CARTESIAN_POINT('',(0.,-3.50307614613369E-15,23.2127653637874));
#520=CARTESIAN_POINT('',(0.,25.4941230636257,23.2127653637874));
#521=CARTESIAN_POINT('',(0.,-4.54982703356749E-14,1.7872346362127));
#522=CARTESIAN_POINT('',(0.,49.3998510014072,1.7872346362126));
#523=CARTESIAN_POINT('',(0.,1.03883167359773E-28,25.0000000000001));
#524=CARTESIAN_POINT('',(0.,-3.46944695195361E-14,4.94117647058825));
#525=CARTESIAN_POINT('',(60.7621813382483,-3.46944695195361E-14,4.94117647058825));
#526=CARTESIAN_POINT('',(0.,-3.46944695195361E-14,7.00000000000011));
#527=CARTESIAN_POINT('',(0.,5.23852944873328E-29,25.));
#528=CARTESIAN_POINT('',(0.,20.8221772953084,25.));
#529=CARTESIAN_POINT('',(0.,5.19415836798866E-29,25.));
#530=CARTESIAN_POINT('',(0.,-3.46944695195361E-14,6.00000000000001));
#531=CARTESIAN_POINT('',(62.1958351743605,-3.46944695195361E-14,6.00000000000001));
#532=CARTESIAN_POINT('',(0.,0.,6.00000000000001));
#533=CARTESIAN_POINT('',(63.5,0.,6.00000000000001));
#534=CARTESIAN_POINT('',(0.,68.,6.00000000000001));
#535=CARTESIAN_POINT('',(0.,1.86721990528865E-13,295.5));
#536=CARTESIAN_POINT('',(0.,-64.9999999999996,295.5));
#537=CARTESIAN_POINT('',(0.,0.,295.5));
#538=CARTESIAN_POINT('',(68.,0.,295.5));
#539=CARTESIAN_POINT('',(0.,68.,295.5));
#540=CARTESIAN_POINT('',(0.,0.,10.5));
#541=CARTESIAN_POINT('',(68.,0.,10.5));
#542=CARTESIAN_POINT('',(0.,0.,0.));
#543=CARTESIAN_POINT('',(0.,0.,10.5));
#544=CARTESIAN_POINT('',(0.,-1.37203770149064E-14,18.));
#545=CARTESIAN_POINT('',(0.,-3.46944695195361E-14,4.50000000000001));
#546=CARTESIAN_POINT('',(0.,2.21865651466341E-13,325.5));
#547=CARTESIAN_POINT('',(0.,-20.4999999999996,325.5));
#548=CARTESIAN_POINT('',(0.,1.86721990528865E-13,295.5));
#549=CARTESIAN_POINT('',(0.,0.,365.5));
#550=CARTESIAN_POINT('',(20.5,0.,365.5));
#551=CARTESIAN_POINT('',(0.,0.,325.5));
#552=CARTESIAN_POINT('',(0.,0.,370.5));
#553=CARTESIAN_POINT('',(26.5,0.,370.5));
#554=CARTESIAN_POINT('',(0.,0.,370.5));
#555=CARTESIAN_POINT('',(-20.6,0.,370.5));
#556=CARTESIAN_POINT('',(0.,20.5,370.5));
#557=CARTESIAN_POINT('',(0.,0.,369.5));
#558=CARTESIAN_POINT('',(27.5,0.,369.5));
#559=CARTESIAN_POINT('',(0.,0.,367.267326987979));
#560=CARTESIAN_POINT('',(-27.5,0.,367.267326987979));
#561=CARTESIAN_POINT('',(0.,0.,325.5));
#562=CARTESIAN_POINT('',(0.,0.,366.30140116169));
#563=CARTESIAN_POINT('',(-26.7588190451025,0.,366.30140116169));
#564=CARTESIAN_POINT('',(0.,0.,365.5));
#565=CARTESIAN_POINT('',(23.7679491924314,0.,365.5));
#566=CARTESIAN_POINT('',(0.,0.,366.5));
#567=CARTESIAN_POINT('',(0.,23.7679491924314,365.5));
#568=CARTESIAN_POINT('',(0.,0.,367.267326987979));
#569=CARTESIAN_POINT('',(0.,3.08708482835396E-13,368.));
#570=CARTESIAN_POINT('',(-18.5,3.08708482835396E-13,368.));
#571=CARTESIAN_POINT('',(0.,0.,368.));
#572=CARTESIAN_POINT('',(-20.6,0.,368.));
#573=CARTESIAN_POINT('',(0.,0.,368.));
#574=CARTESIAN_POINT('',(0.,0.,0.));
#575=CARTESIAN_POINT('',(0.,-3.57709829317205E-13,28.));
#576=CARTESIAN_POINT('',(0.,-22.2373182106305,28.0000000000001));
#577=CARTESIAN_POINT('',(0.,6.84235478037571E-29,28.));
#578=CARTESIAN_POINT('',(0.,-3.61408049141436E-13,26.1132049985586));
#579=CARTESIAN_POINT('',(0.,-27.0180226192628,26.1132049985586));
#580=CARTESIAN_POINT('',(0.,-3.71430206332111E-13,21.));
#581=CARTESIAN_POINT('',(0.,-4.04178169577821E-13,4.29231460105521));
#582=CARTESIAN_POINT('',(0.,-50.356567803535,4.29231460105531));
#583=CARTESIAN_POINT('',(0.,-3.57709829317205E-13,28.));
#584=CARTESIAN_POINT('',(0.,-3.9883100944663E-13,7.02038255995096));
#585=CARTESIAN_POINT('',(0.,-58.3625722676236,7.02038255995107));
#586=CARTESIAN_POINT('',(0.,-4.02455846426619E-13,7.7944806937028));
#587=CARTESIAN_POINT('',(0.,-3.92547728092146E-13,10.2260502638053));
#588=CARTESIAN_POINT('',(0.,-62.5406162159687,10.2260502638054));
#589=CARTESIAN_POINT('',(0.,-4.02455846426619E-13,6.39947449570156));
#590=CARTESIAN_POINT('',(0.,-3.9126752654308E-13,10.879196371505));
#591=CARTESIAN_POINT('',(0.,-63.9849795337196,10.8791963715051));
#592=CARTESIAN_POINT('',(0.,-3.88578058618805E-13,11.8011786499555));
#593=CARTESIAN_POINT('',(0.,-3.85673175826776E-13,13.7333785103475));
#594=CARTESIAN_POINT('',(0.,-65.0914315428195,13.7333785103477));
#595=CARTESIAN_POINT('',(0.,-3.88578058618805E-13,13.7333785103475));
#596=CARTESIAN_POINT('',(0.,1.60724416460333E-13,292.5));
#597=CARTESIAN_POINT('',(0.,-65.0914315428186,292.5));
#598=CARTESIAN_POINT('',(0.,-3.57709829317205E-13,28.));
#599=CARTESIAN_POINT('',(0.,2.22466113027412E-13,324.));
#600=CARTESIAN_POINT('',(0.,-18.4999999999998,324.));
#601=CARTESIAN_POINT('',(0.,1.60724416460333E-13,292.5));
#602=CARTESIAN_POINT('',(0.,-3.57709829317205E-13,28.));
#603=CARTESIAN_POINT('',(0.,0.,369.5));
#604=MECHANICAL_DESIGN_GEOMETRIC_PRESENTATION_REPRESENTATION('',(#24),#605);
#605=(
GEOMETRIC_REPRESENTATION_CONTEXT(3)
GLOBAL_UNCERTAINTY_ASSIGNED_CONTEXT((#606))
GLOBAL_UNIT_ASSIGNED_CONTEXT((#612,#608,#607))
REPRESENTATION_CONTEXT('Powder Container 3','TOP_LEVEL_ASSEMBLY_PART')
);
#606=UNCERTAINTY_MEASURE_WITH_UNIT(LENGTH_MEASURE(2.E-5),#612,
'DISTANCE_ACCURACY_VALUE','Maximum Tolerance applied to model');
#607=(
NAMED_UNIT(*)
SI_UNIT($,.STERADIAN.)
SOLID_ANGLE_UNIT()
);
#608=(
CONVERSION_BASED_UNIT('DEGREE',#610)
NAMED_UNIT(#609)
PLANE_ANGLE_UNIT()
);
#609=DIMENSIONAL_EXPONENTS(0.,0.,0.,0.,0.,0.,0.);
#610=PLANE_ANGLE_MEASURE_WITH_UNIT(PLANE_ANGLE_MEASURE(0.0174532925),#611);
#611=(
NAMED_UNIT(*)
PLANE_ANGLE_UNIT()
SI_UNIT($,.RADIAN.)
);
#612=(
LENGTH_UNIT()
NAMED_UNIT(*)
SI_UNIT(.MILLI.,.METRE.)
);
ENDSEC;
END-ISO-10303-21;
