ISO-10303-21;
HEADER;
/* Generated by software containing ST-Developer
 * from STEP Tools, Inc. (www.steptools.com) 
 */
/* OPTION: using custom schema-name function */

FILE_DESCRIPTION(
/* description */ (''),
/* implementation_level */ '2;1');

FILE_NAME(
/* name */ 'Powder Container 2L.stp',
/* time_stamp */ '2022-06-10T08:46:53+02:00',
/* author */ (''),
/* organization */ (''),
/* preprocessor_version */ 'ST-DEVELOPER v18.1',
/* originating_system */ 'SIEMENS PLM Software NX 1973',
/* authorisation */ '');

FILE_SCHEMA (('AUTOMOTIVE_DESIGN { 1 0 10303 214 3 1 1 1 }'));
ENDSEC;

DATA;
#10=SHAPE_REPRESENTATION_RELATIONSHIP('None',
'relationship between 590779_00_Powder Container2000cm3-None and 59077
9_00_Powder Container2000cm3-None',#22,#11);
#11=ADVANCED_BREP_SHAPE_REPRESENTATION(
'590779_00_Powder Container2000cm3-None',(#32),#585);
#12=SHAPE_DEFINITION_REPRESENTATION(#13,#22);
#13=PRODUCT_DEFINITION_SHAPE('','',#14);
#14=PRODUCT_DEFINITION(' ','',#16,#15);
#15=PRODUCT_DEFINITION_CONTEXT('part definition',#21,'design');
#16=PRODUCT_DEFINITION_FORMATION_WITH_SPECIFIED_SOURCE(' ',' ',#18,
 .NOT_KNOWN.);
#17=PRODUCT_RELATED_PRODUCT_CATEGORY('part','',(#18));
#18=PRODUCT('590779_00_Powder Container2000cm3',
'590779_00_Powder Container2000cm3',' ',(#19));
#19=PRODUCT_CONTEXT(' ',#21,'mechanical');
#20=APPLICATION_PROTOCOL_DEFINITION('international standard',
'automotive_design',2010,#21);
#21=APPLICATION_CONTEXT(
'core data for automotive mechanical design processes');
#22=SHAPE_REPRESENTATION('590779_00_Powder Container2000cm3-None',(#333),
#585);
#23=PRESENTATION_LAYER_ASSIGNMENT('1','Layer 1',(#32));
#24=STYLED_ITEM('',(#25),#32);
#25=PRESENTATION_STYLE_ASSIGNMENT((#26));
#26=SURFACE_STYLE_USAGE(.BOTH.,#27);
#27=SURFACE_SIDE_STYLE('',(#28));
#28=SURFACE_STYLE_FILL_AREA(#29);
#29=FILL_AREA_STYLE('',(#30));
#30=FILL_AREA_STYLE_COLOUR('',#31);
#31=COLOUR_RGB('orange',1.,0.500007629510948,0.);
#32=MANIFOLD_SOLID_BREP('',#33);
#33=CLOSED_SHELL('',(#54,#55,#56,#57,#58,#59,#60,#61,#62,#63,#64,#65,#66,
#67,#68,#69,#70,#71,#72,#73,#74,#75,#76,#77,#78,#79,#80,#81));
#34=CYLINDRICAL_SURFACE('',#348,68.);
#35=CYLINDRICAL_SURFACE('',#355,20.5);
#36=CYLINDRICAL_SURFACE('',#361,27.5);
#37=CYLINDRICAL_SURFACE('',#370,20.6);
#38=CYLINDRICAL_SURFACE('',#384,64.8647215210069);
#39=CYLINDRICAL_SURFACE('',#387,18.5);
#40=PLANE('',#340);
#41=PLANE('',#343);
#42=PLANE('',#346);
#43=PLANE('',#358);
#44=PLANE('',#365);
#45=PLANE('',#369);
#46=PLANE('',#372);
#47=FACE_OUTER_BOUND('',#148,.T.);
#48=FACE_OUTER_BOUND('',#179,.T.);
#49=CONICAL_SURFACE('',#338,49.3998510014072,48.13168649319);
#50=CONICAL_SURFACE('',#353,65.,56.0138328903515);
#51=CONICAL_SURFACE('',#364,27.5,74.9999999999999);
#52=CONICAL_SURFACE('',#376,25.0000000000004,47.2298523821851);
#53=CONICAL_SURFACE('',#386,64.8647215210068,55.7204181214097);
#54=ADVANCED_FACE('',(#92,#93),#82,.T.);
#55=ADVANCED_FACE('',(#94,#95),#49,.F.);
#56=ADVANCED_FACE('',(#47),#40,.F.);
#57=ADVANCED_FACE('',(#96,#97),#41,.T.);
#58=ADVANCED_FACE('',(#98,#99),#42,.F.);
#59=ADVANCED_FACE('',(#100,#101),#34,.T.);
#60=ADVANCED_FACE('',(#102,#103),#83,.T.);
#61=ADVANCED_FACE('',(#104,#105),#84,.F.);
#62=ADVANCED_FACE('',(#106,#107),#85,.F.);
#63=ADVANCED_FACE('',(#108,#109),#50,.T.);
#64=ADVANCED_FACE('',(#110,#111),#35,.T.);
#65=ADVANCED_FACE('',(#112,#113),#43,.T.);
#66=ADVANCED_FACE('',(#114,#115),#36,.T.);
#67=ADVANCED_FACE('',(#116,#117),#51,.T.);
#68=ADVANCED_FACE('',(#118,#119),#44,.T.);
#69=ADVANCED_FACE('',(#120,#121),#86,.T.);
#70=ADVANCED_FACE('',(#122,#123),#45,.F.);
#71=ADVANCED_FACE('',(#124,#125),#37,.F.);
#72=ADVANCED_FACE('',(#48),#46,.T.);
#73=ADVANCED_FACE('',(#126,#127),#87,.T.);
#74=ADVANCED_FACE('',(#128,#129),#52,.T.);
#75=ADVANCED_FACE('',(#130,#131),#88,.F.);
#76=ADVANCED_FACE('',(#132,#133),#89,.T.);
#77=ADVANCED_FACE('',(#134,#135),#90,.F.);
#78=ADVANCED_FACE('',(#136,#137),#38,.F.);
#79=ADVANCED_FACE('',(#138,#139),#53,.F.);
#80=ADVANCED_FACE('',(#140,#141),#39,.F.);
#81=ADVANCED_FACE('',(#142,#143),#91,.T.);
#82=TOROIDAL_SURFACE('',#336,54.0717967697245,7.);
#83=TOROIDAL_SURFACE('',#349,63.5,4.5);
#84=TOROIDAL_SURFACE('',#350,20.8221772953084,7.);
#85=TOROIDAL_SURFACE('',#351,62.1958351743605,1.5);
#86=TOROIDAL_SURFACE('',#366,26.5,1.);
#87=TOROIDAL_SURFACE('',#374,22.2588334302523,7.);
#88=TOROIDAL_SURFACE('',#378,53.9032715919174,4.7944806937027);
#89=TOROIDAL_SURFACE('',#380,64.8317420752193,7.49201425702943);
#90=TOROIDAL_SURFACE('',#382,60.6301990776198,4.23452244338721);
#91=TOROIDAL_SURFACE('',#388,26.5,1.);
#92=FACE_BOUND('',#144,.T.);
#93=FACE_BOUND('',#145,.T.);
#94=FACE_BOUND('',#146,.T.);
#95=FACE_BOUND('',#147,.T.);
#96=FACE_BOUND('',#149,.T.);
#97=FACE_BOUND('',#150,.T.);
#98=FACE_BOUND('',#151,.T.);
#99=FACE_BOUND('',#152,.T.);
#100=FACE_BOUND('',#153,.T.);
#101=FACE_BOUND('',#154,.T.);
#102=FACE_BOUND('',#155,.T.);
#103=FACE_BOUND('',#156,.T.);
#104=FACE_BOUND('',#157,.T.);
#105=FACE_BOUND('',#158,.T.);
#106=FACE_BOUND('',#159,.T.);
#107=FACE_BOUND('',#160,.T.);
#108=FACE_BOUND('',#161,.T.);
#109=FACE_BOUND('',#162,.T.);
#110=FACE_BOUND('',#163,.T.);
#111=FACE_BOUND('',#164,.T.);
#112=FACE_BOUND('',#165,.T.);
#113=FACE_BOUND('',#166,.T.);
#114=FACE_BOUND('',#167,.T.);
#115=FACE_BOUND('',#168,.T.);
#116=FACE_BOUND('',#169,.T.);
#117=FACE_BOUND('',#170,.T.);
#118=FACE_BOUND('',#171,.T.);
#119=FACE_BOUND('',#172,.T.);
#120=FACE_BOUND('',#173,.T.);
#121=FACE_BOUND('',#174,.T.);
#122=FACE_BOUND('',#175,.T.);
#123=FACE_BOUND('',#176,.T.);
#124=FACE_BOUND('',#177,.T.);
#125=FACE_BOUND('',#178,.T.);
#126=FACE_BOUND('',#180,.T.);
#127=FACE_BOUND('',#181,.T.);
#128=FACE_BOUND('',#182,.T.);
#129=FACE_BOUND('',#183,.T.);
#130=FACE_BOUND('',#184,.T.);
#131=FACE_BOUND('',#185,.T.);
#132=FACE_BOUND('',#186,.T.);
#133=FACE_BOUND('',#187,.T.);
#134=FACE_BOUND('',#188,.T.);
#135=FACE_BOUND('',#189,.T.);
#136=FACE_BOUND('',#190,.T.);
#137=FACE_BOUND('',#191,.T.);
#138=FACE_BOUND('',#192,.T.);
#139=FACE_BOUND('',#193,.T.);
#140=FACE_BOUND('',#194,.T.);
#141=FACE_BOUND('',#195,.T.);
#142=FACE_BOUND('',#196,.T.);
#143=FACE_BOUND('',#197,.T.);
#144=EDGE_LOOP('',(#198));
#145=EDGE_LOOP('',(#199));
#146=EDGE_LOOP('',(#200));
#147=EDGE_LOOP('',(#201));
#148=EDGE_LOOP('',(#202));
#149=EDGE_LOOP('',(#203));
#150=EDGE_LOOP('',(#204));
#151=EDGE_LOOP('',(#205));
#152=EDGE_LOOP('',(#206));
#153=EDGE_LOOP('',(#207));
#154=EDGE_LOOP('',(#208));
#155=EDGE_LOOP('',(#209));
#156=EDGE_LOOP('',(#210));
#157=EDGE_LOOP('',(#211));
#158=EDGE_LOOP('',(#212));
#159=EDGE_LOOP('',(#213));
#160=EDGE_LOOP('',(#214));
#161=EDGE_LOOP('',(#215));
#162=EDGE_LOOP('',(#216));
#163=EDGE_LOOP('',(#217));
#164=EDGE_LOOP('',(#218));
#165=EDGE_LOOP('',(#219));
#166=EDGE_LOOP('',(#220));
#167=EDGE_LOOP('',(#221));
#168=EDGE_LOOP('',(#222));
#169=EDGE_LOOP('',(#223));
#170=EDGE_LOOP('',(#224));
#171=EDGE_LOOP('',(#225));
#172=EDGE_LOOP('',(#226));
#173=EDGE_LOOP('',(#227));
#174=EDGE_LOOP('',(#228));
#175=EDGE_LOOP('',(#229));
#176=EDGE_LOOP('',(#230));
#177=EDGE_LOOP('',(#231));
#178=EDGE_LOOP('',(#232));
#179=EDGE_LOOP('',(#233));
#180=EDGE_LOOP('',(#234));
#181=EDGE_LOOP('',(#235));
#182=EDGE_LOOP('',(#236));
#183=EDGE_LOOP('',(#237));
#184=EDGE_LOOP('',(#238));
#185=EDGE_LOOP('',(#239));
#186=EDGE_LOOP('',(#240));
#187=EDGE_LOOP('',(#241));
#188=EDGE_LOOP('',(#242));
#189=EDGE_LOOP('',(#243));
#190=EDGE_LOOP('',(#244));
#191=EDGE_LOOP('',(#245));
#192=EDGE_LOOP('',(#246));
#193=EDGE_LOOP('',(#247));
#194=EDGE_LOOP('',(#248));
#195=EDGE_LOOP('',(#249));
#196=EDGE_LOOP('',(#250));
#197=EDGE_LOOP('',(#251));
#198=ORIENTED_EDGE('',*,*,#279,.T.);
#199=ORIENTED_EDGE('',*,*,#280,.T.);
#200=ORIENTED_EDGE('',*,*,#281,.T.);
#201=ORIENTED_EDGE('',*,*,#280,.F.);
#202=ORIENTED_EDGE('',*,*,#282,.T.);
#203=ORIENTED_EDGE('',*,*,#283,.T.);
#204=ORIENTED_EDGE('',*,*,#284,.T.);
#205=ORIENTED_EDGE('',*,*,#285,.F.);
#206=ORIENTED_EDGE('',*,*,#286,.T.);
#207=ORIENTED_EDGE('',*,*,#287,.T.);
#208=ORIENTED_EDGE('',*,*,#286,.F.);
#209=ORIENTED_EDGE('',*,*,#287,.F.);
#210=ORIENTED_EDGE('',*,*,#284,.F.);
#211=ORIENTED_EDGE('',*,*,#282,.F.);
#212=ORIENTED_EDGE('',*,*,#281,.F.);
#213=ORIENTED_EDGE('',*,*,#283,.F.);
#214=ORIENTED_EDGE('',*,*,#279,.F.);
#215=ORIENTED_EDGE('',*,*,#288,.F.);
#216=ORIENTED_EDGE('',*,*,#285,.T.);
#217=ORIENTED_EDGE('',*,*,#288,.T.);
#218=ORIENTED_EDGE('',*,*,#289,.F.);
#219=ORIENTED_EDGE('',*,*,#290,.T.);
#220=ORIENTED_EDGE('',*,*,#291,.T.);
#221=ORIENTED_EDGE('',*,*,#292,.T.);
#222=ORIENTED_EDGE('',*,*,#293,.T.);
#223=ORIENTED_EDGE('',*,*,#294,.T.);
#224=ORIENTED_EDGE('',*,*,#295,.T.);
#225=ORIENTED_EDGE('',*,*,#289,.T.);
#226=ORIENTED_EDGE('',*,*,#295,.F.);
#227=ORIENTED_EDGE('',*,*,#294,.F.);
#228=ORIENTED_EDGE('',*,*,#293,.F.);
#229=ORIENTED_EDGE('',*,*,#296,.T.);
#230=ORIENTED_EDGE('',*,*,#297,.T.);
#231=ORIENTED_EDGE('',*,*,#291,.F.);
#232=ORIENTED_EDGE('',*,*,#297,.F.);
#233=ORIENTED_EDGE('',*,*,#298,.T.);
#234=ORIENTED_EDGE('',*,*,#298,.F.);
#235=ORIENTED_EDGE('',*,*,#299,.F.);
#236=ORIENTED_EDGE('',*,*,#299,.T.);
#237=ORIENTED_EDGE('',*,*,#300,.F.);
#238=ORIENTED_EDGE('',*,*,#301,.F.);
#239=ORIENTED_EDGE('',*,*,#300,.T.);
#240=ORIENTED_EDGE('',*,*,#302,.F.);
#241=ORIENTED_EDGE('',*,*,#301,.T.);
#242=ORIENTED_EDGE('',*,*,#303,.F.);
#243=ORIENTED_EDGE('',*,*,#302,.T.);
#244=ORIENTED_EDGE('',*,*,#304,.F.);
#245=ORIENTED_EDGE('',*,*,#303,.T.);
#246=ORIENTED_EDGE('',*,*,#305,.F.);
#247=ORIENTED_EDGE('',*,*,#304,.T.);
#248=ORIENTED_EDGE('',*,*,#296,.F.);
#249=ORIENTED_EDGE('',*,*,#305,.T.);
#250=ORIENTED_EDGE('',*,*,#292,.F.);
#251=ORIENTED_EDGE('',*,*,#290,.F.);
#252=VERTEX_POINT('',#503);
#253=VERTEX_POINT('',#505);
#254=VERTEX_POINT('',#508);
#255=VERTEX_POINT('',#511);
#256=VERTEX_POINT('',#514);
#257=VERTEX_POINT('',#516);
#258=VERTEX_POINT('',#519);
#259=VERTEX_POINT('',#521);
#260=VERTEX_POINT('',#524);
#261=VERTEX_POINT('',#530);
#262=VERTEX_POINT('',#533);
#263=VERTEX_POINT('',#536);
#264=VERTEX_POINT('',#538);
#265=VERTEX_POINT('',#541);
#266=VERTEX_POINT('',#543);
#267=VERTEX_POINT('',#546);
#268=VERTEX_POINT('',#548);
#269=VERTEX_POINT('',#553);
#270=VERTEX_POINT('',#555);
#271=VERTEX_POINT('',#559);
#272=VERTEX_POINT('',#562);
#273=VERTEX_POINT('',#565);
#274=VERTEX_POINT('',#568);
#275=VERTEX_POINT('',#571);
#276=VERTEX_POINT('',#574);
#277=VERTEX_POINT('',#577);
#278=VERTEX_POINT('',#580);
#279=EDGE_CURVE('',#252,#252,#306,.T.);
#280=EDGE_CURVE('',#253,#253,#307,.T.);
#281=EDGE_CURVE('',#254,#254,#308,.T.);
#282=EDGE_CURVE('',#255,#255,#309,.T.);
#283=EDGE_CURVE('',#256,#256,#310,.T.);
#284=EDGE_CURVE('',#257,#257,#311,.T.);
#285=EDGE_CURVE('',#258,#258,#312,.T.);
#286=EDGE_CURVE('',#259,#259,#313,.T.);
#287=EDGE_CURVE('',#260,#260,#314,.T.);
#288=EDGE_CURVE('',#261,#261,#315,.T.);
#289=EDGE_CURVE('',#262,#262,#316,.T.);
#290=EDGE_CURVE('',#263,#263,#317,.T.);
#291=EDGE_CURVE('',#264,#264,#318,.T.);
#292=EDGE_CURVE('',#265,#265,#319,.T.);
#293=EDGE_CURVE('',#266,#266,#320,.T.);
#294=EDGE_CURVE('',#267,#267,#321,.T.);
#295=EDGE_CURVE('',#268,#268,#322,.T.);
#296=EDGE_CURVE('',#269,#269,#323,.T.);
#297=EDGE_CURVE('',#270,#270,#324,.T.);
#298=EDGE_CURVE('',#271,#271,#325,.T.);
#299=EDGE_CURVE('',#272,#272,#326,.T.);
#300=EDGE_CURVE('',#273,#273,#327,.T.);
#301=EDGE_CURVE('',#274,#274,#328,.T.);
#302=EDGE_CURVE('',#275,#275,#329,.T.);
#303=EDGE_CURVE('',#276,#276,#330,.T.);
#304=EDGE_CURVE('',#277,#277,#331,.T.);
#305=EDGE_CURVE('',#278,#278,#332,.T.);
#306=CIRCLE('',#334,60.7621813382482);
#307=CIRCLE('',#335,49.3998510014072);
#308=CIRCLE('',#337,25.4941230636258);
#309=CIRCLE('',#339,20.8221772953084);
#310=CIRCLE('',#341,62.1958351743605);
#311=CIRCLE('',#342,63.5);
#312=CIRCLE('',#344,65.);
#313=CIRCLE('',#345,68.);
#314=CIRCLE('',#347,68.);
#315=CIRCLE('',#352,20.5);
#316=CIRCLE('',#354,20.5);
#317=CIRCLE('',#356,26.5);
#318=CIRCLE('',#357,20.6);
#319=CIRCLE('',#359,27.5);
#320=CIRCLE('',#360,27.5);
#321=CIRCLE('',#362,26.7588190451025);
#322=CIRCLE('',#363,23.7679491924315);
#323=CIRCLE('',#367,18.5);
#324=CIRCLE('',#368,20.6);
#325=CIRCLE('',#371,22.2588334302523);
#326=CIRCLE('',#373,27.0122458869973);
#327=CIRCLE('',#375,50.6475366986218);
#328=CIRCLE('',#377,58.4461626722134);
#329=CIRCLE('',#379,62.147401349247);
#330=CIRCLE('',#381,64.864721521007);
#331=CIRCLE('',#383,64.8647215210068);
#332=CIRCLE('',#385,18.5000000000001);
#333=AXIS2_PLACEMENT_3D('',#501,#389,#390);
#334=AXIS2_PLACEMENT_3D('',#502,#391,#392);
#335=AXIS2_PLACEMENT_3D('',#504,#393,#394);
#336=AXIS2_PLACEMENT_3D('',#506,#395,#396);
#337=AXIS2_PLACEMENT_3D('',#507,#397,#398);
#338=AXIS2_PLACEMENT_3D('',#509,#399,#400);
#339=AXIS2_PLACEMENT_3D('',#510,#401,#402);
#340=AXIS2_PLACEMENT_3D('',#512,#403,#404);
#341=AXIS2_PLACEMENT_3D('',#513,#405,#406);
#342=AXIS2_PLACEMENT_3D('',#515,#407,#408);
#343=AXIS2_PLACEMENT_3D('',#517,#409,#410);
#344=AXIS2_PLACEMENT_3D('',#518,#411,#412);
#345=AXIS2_PLACEMENT_3D('',#520,#413,#414);
#346=AXIS2_PLACEMENT_3D('',#522,#415,#416);
#347=AXIS2_PLACEMENT_3D('',#523,#417,#418);
#348=AXIS2_PLACEMENT_3D('',#525,#419,#420);
#349=AXIS2_PLACEMENT_3D('',#526,#421,#422);
#350=AXIS2_PLACEMENT_3D('',#527,#423,#424);
#351=AXIS2_PLACEMENT_3D('',#528,#425,#426);
#352=AXIS2_PLACEMENT_3D('',#529,#427,#428);
#353=AXIS2_PLACEMENT_3D('',#531,#429,#430);
#354=AXIS2_PLACEMENT_3D('',#532,#431,#432);
#355=AXIS2_PLACEMENT_3D('',#534,#433,#434);
#356=AXIS2_PLACEMENT_3D('',#535,#435,#436);
#357=AXIS2_PLACEMENT_3D('',#537,#437,#438);
#358=AXIS2_PLACEMENT_3D('',#539,#439,#440);
#359=AXIS2_PLACEMENT_3D('',#540,#441,#442);
#360=AXIS2_PLACEMENT_3D('',#542,#443,#444);
#361=AXIS2_PLACEMENT_3D('',#544,#445,#446);
#362=AXIS2_PLACEMENT_3D('',#545,#447,#448);
#363=AXIS2_PLACEMENT_3D('',#547,#449,#450);
#364=AXIS2_PLACEMENT_3D('',#549,#451,#452);
#365=AXIS2_PLACEMENT_3D('',#550,#453,#454);
#366=AXIS2_PLACEMENT_3D('',#551,#455,#456);
#367=AXIS2_PLACEMENT_3D('',#552,#457,#458);
#368=AXIS2_PLACEMENT_3D('',#554,#459,#460);
#369=AXIS2_PLACEMENT_3D('',#556,#461,#462);
#370=AXIS2_PLACEMENT_3D('',#557,#463,#464);
#371=AXIS2_PLACEMENT_3D('',#558,#465,#466);
#372=AXIS2_PLACEMENT_3D('',#560,#467,#468);
#373=AXIS2_PLACEMENT_3D('',#561,#469,#470);
#374=AXIS2_PLACEMENT_3D('',#563,#471,#472);
#375=AXIS2_PLACEMENT_3D('',#564,#473,#474);
#376=AXIS2_PLACEMENT_3D('',#566,#475,#476);
#377=AXIS2_PLACEMENT_3D('',#567,#477,#478);
#378=AXIS2_PLACEMENT_3D('',#569,#479,#480);
#379=AXIS2_PLACEMENT_3D('',#570,#481,#482);
#380=AXIS2_PLACEMENT_3D('',#572,#483,#484);
#381=AXIS2_PLACEMENT_3D('',#573,#485,#486);
#382=AXIS2_PLACEMENT_3D('',#575,#487,#488);
#383=AXIS2_PLACEMENT_3D('',#576,#489,#490);
#384=AXIS2_PLACEMENT_3D('',#578,#491,#492);
#385=AXIS2_PLACEMENT_3D('',#579,#493,#494);
#386=AXIS2_PLACEMENT_3D('',#581,#495,#496);
#387=AXIS2_PLACEMENT_3D('',#582,#497,#498);
#388=AXIS2_PLACEMENT_3D('',#583,#499,#500);
#389=DIRECTION('',(0.,0.,1.));
#390=DIRECTION('',(1.,0.,0.));
#391=DIRECTION('',(0.,0.,-1.));
#392=DIRECTION('',(1.,0.,0.));
#393=DIRECTION('',(0.,1.96005385927235E-15,1.));
#394=DIRECTION('',(0.,1.,-1.96210458645803E-15));
#395=DIRECTION('',(0.,-1.96005385927235E-15,-1.));
#396=DIRECTION('',(0.,1.,-1.95992137407913E-15));
#397=DIRECTION('',(0.,1.96005385927235E-15,1.));
#398=DIRECTION('',(0.,1.,-1.90523350052593E-15));
#399=DIRECTION('',(0.,-1.96005385927235E-15,-1.));
#400=DIRECTION('',(0.,1.,-2.04267485363732E-15));
#401=DIRECTION('',(0.,-1.96005385927235E-15,-1.));
#402=DIRECTION('',(0.,-1.,1.99947214131272E-15));
#403=DIRECTION('',(0.,1.96005385927235E-15,1.));
#404=DIRECTION('',(0.,-1.,1.96023752785379E-15));
#405=DIRECTION('',(0.,0.,1.));
#406=DIRECTION('',(-1.,0.,0.));
#407=DIRECTION('',(0.,0.,-1.));
#408=DIRECTION('',(-1.,0.,0.));
#409=DIRECTION('',(0.,0.,-1.));
#410=DIRECTION('',(-1.,0.,0.));
#411=DIRECTION('',(0.,1.17145536458252E-15,1.));
#412=DIRECTION('',(0.,-1.,1.28102656687518E-15));
#413=DIRECTION('',(0.,0.,1.));
#414=DIRECTION('',(1.,0.,0.));
#415=DIRECTION('',(0.,0.,-1.));
#416=DIRECTION('',(-1.,0.,0.));
#417=DIRECTION('',(0.,0.,1.));
#418=DIRECTION('',(-1.,0.,0.));
#419=DIRECTION('',(0.,0.,1.));
#420=DIRECTION('',(1.,0.,0.));
#421=DIRECTION('',(0.,0.,-1.));
#422=DIRECTION('',(-1.,0.,0.));
#423=DIRECTION('',(0.,1.96005385927235E-15,1.));
#424=DIRECTION('',(0.,-1.,1.99521233158911E-15));
#425=DIRECTION('',(0.,0.,-1.));
#426=DIRECTION('',(-1.,0.,0.));
#427=DIRECTION('',(0.,1.17145536458252E-15,1.));
#428=DIRECTION('',(0.,-1.,1.35393051783556E-15));
#429=DIRECTION('',(0.,-1.17145536458252E-15,-1.));
#430=DIRECTION('',(0.,1.,-1.16519639290584E-15));
#431=DIRECTION('',(0.,0.,1.));
#432=DIRECTION('',(1.,0.,0.));
#433=DIRECTION('',(0.,0.,1.));
#434=DIRECTION('',(1.,0.,0.));
#435=DIRECTION('',(0.,0.,1.));
#436=DIRECTION('',(1.,0.,0.));
#437=DIRECTION('',(0.,0.,-1.));
#438=DIRECTION('',(-1.,0.,0.));
#439=DIRECTION('',(0.,0.,1.));
#440=DIRECTION('',(1.,0.,0.));
#441=DIRECTION('',(0.,0.,-1.));
#442=DIRECTION('',(1.,0.,0.));
#443=DIRECTION('',(0.,0.,1.));
#444=DIRECTION('',(-1.,0.,0.));
#445=DIRECTION('',(0.,0.,1.));
#446=DIRECTION('',(1.,0.,0.));
#447=DIRECTION('',(0.,0.,-1.));
#448=DIRECTION('',(-1.,0.,0.));
#449=DIRECTION('',(0.,0.,1.));
#450=DIRECTION('',(1.,0.,0.));
#451=DIRECTION('',(0.,0.,1.));
#452=DIRECTION('',(1.,0.,2.95307360227722E-17));
#453=DIRECTION('',(0.,0.,-1.));
#454=DIRECTION('',(-1.,0.,0.));
#455=DIRECTION('',(0.,0.,-1.));
#456=DIRECTION('',(-1.,0.,0.));
#457=DIRECTION('',(0.,0.,-1.));
#458=DIRECTION('',(-1.,0.,0.));
#459=DIRECTION('',(0.,0.,1.));
#460=DIRECTION('',(-1.,0.,0.));
#461=DIRECTION('',(0.,0.,-1.));
#462=DIRECTION('',(-1.,0.,0.));
#463=DIRECTION('',(0.,0.,-1.));
#464=DIRECTION('',(-1.,0.,0.));
#465=DIRECTION('',(0.,1.96005385927235E-15,1.));
#466=DIRECTION('',(0.,-1.,2.02628814833113E-15));
#467=DIRECTION('',(0.,1.96005385927235E-15,1.));
#468=DIRECTION('',(0.,-1.,1.96023752785379E-15));
#469=DIRECTION('',(0.,-1.96005385927235E-15,-1.));
#470=DIRECTION('',(0.,-1.,1.92659671828159E-15));
#471=DIRECTION('',(0.,1.96005385927235E-15,1.));
#472=DIRECTION('',(0.,-1.,2.01582193370116E-15));
#473=DIRECTION('',(0.,-1.96005385927235E-15,-1.));
#474=DIRECTION('',(0.,-1.,1.95230103132279E-15));
#475=DIRECTION('',(0.,-1.96005385927235E-15,-1.));
#476=DIRECTION('',(0.,1.,-2.02953814942784E-15));
#477=DIRECTION('',(0.,-1.96005385927235E-15,-1.));
#478=DIRECTION('',(0.,-1.,1.95892671442913E-15));
#479=DIRECTION('',(0.,1.96005385927235E-15,1.));
#480=DIRECTION('',(0.,-1.,1.965307131202E-15));
#481=DIRECTION('',(0.,-1.96005385927235E-15,-1.));
#482=DIRECTION('',(0.,-1.,1.95391344902707E-15));
#483=DIRECTION('',(0.,1.96005385927235E-15,1.));
#484=DIRECTION('',(0.,-1.,1.96081690654486E-15));
#485=DIRECTION('',(0.,-1.96005385927235E-15,-1.));
#486=DIRECTION('',(0.,-1.,1.95229102625986E-15));
#487=DIRECTION('',(0.,1.96005385927235E-15,1.));
#488=DIRECTION('',(0.,-1.,1.95229102625986E-15));
#489=DIRECTION('',(0.,-1.96005385927235E-15,-1.));
#490=DIRECTION('',(0.,-1.,2.13949701507931E-15));
#491=DIRECTION('',(0.,1.96005385927235E-15,1.));
#492=DIRECTION('',(0.,-1.,1.97903473894836E-15));
#493=DIRECTION('',(0.,-1.96005385927235E-15,-1.));
#494=DIRECTION('',(0.,-1.,1.50030138462858E-15));
#495=DIRECTION('',(0.,-1.96005385927235E-15,-1.));
#496=DIRECTION('',(0.,1.,-1.99298139556139E-15));
#497=DIRECTION('',(0.,1.96005385927235E-15,1.));
#498=DIRECTION('',(0.,-1.,1.87537673078573E-15));
#499=DIRECTION('',(0.,0.,1.));
#500=DIRECTION('',(1.,0.,0.));
#501=CARTESIAN_POINT('',(0.,0.,0.));
#502=CARTESIAN_POINT('',(0.,-3.46944695195361E-14,4.94117647058827));
#503=CARTESIAN_POINT('',(60.7621813382482,-3.46944695195361E-14,4.94117647058827));
#504=CARTESIAN_POINT('',(0.,-4.54982703356749E-14,1.78723463621271));
#505=CARTESIAN_POINT('',(0.,49.3998510014071,1.78723463621262));
#506=CARTESIAN_POINT('',(0.,-3.46944695195361E-14,7.00000000000011));
#507=CARTESIAN_POINT('',(0.,-3.50307614613369E-15,23.2127653637874));
#508=CARTESIAN_POINT('',(0.,25.4941230636257,23.2127653637874));
#509=CARTESIAN_POINT('',(0.,-4.54982703356749E-14,1.78723463621271));
#510=CARTESIAN_POINT('',(0.,4.16000867987643E-29,25.));
#511=CARTESIAN_POINT('',(0.,-20.8221772953084,25.0000000000001));
#512=CARTESIAN_POINT('',(0.,23.5,25.));
#513=CARTESIAN_POINT('',(0.,-3.46944695195361E-14,6.00000000000001));
#514=CARTESIAN_POINT('',(-62.1958351743605,-3.46944695195361E-14,6.00000000000001));
#515=CARTESIAN_POINT('',(0.,0.,6.00000000000001));
#516=CARTESIAN_POINT('',(-63.5,0.,6.00000000000001));
#517=CARTESIAN_POINT('',(0.,61.,6.00000000000001));
#518=CARTESIAN_POINT('',(0.,-7.10867804338554E-16,135.5));
#519=CARTESIAN_POINT('',(0.,-65.,135.5));
#520=CARTESIAN_POINT('',(0.,0.,135.5));
#521=CARTESIAN_POINT('',(68.,0.,135.5));
#522=CARTESIAN_POINT('',(0.,68.,135.5));
#523=CARTESIAN_POINT('',(0.,0.,10.5));
#524=CARTESIAN_POINT('',(-68.,0.,10.5));
#525=CARTESIAN_POINT('',(0.,0.,0.));
#526=CARTESIAN_POINT('',(0.,0.,10.5));
#527=CARTESIAN_POINT('',(0.,-1.37203770149064E-14,18.));
#528=CARTESIAN_POINT('',(0.,-3.46944695195361E-14,4.50000000000001));
#529=CARTESIAN_POINT('',(0.,3.44327931331371E-14,165.5));
#530=CARTESIAN_POINT('',(0.,-20.4999999999999,165.5));
#531=CARTESIAN_POINT('',(0.,-7.10867804338554E-16,135.5));
#532=CARTESIAN_POINT('',(0.,0.,205.5));
#533=CARTESIAN_POINT('',(20.5,0.,205.5));
#534=CARTESIAN_POINT('',(0.,0.,165.5));
#535=CARTESIAN_POINT('',(0.,0.,210.5));
#536=CARTESIAN_POINT('',(26.5,0.,210.5));
#537=CARTESIAN_POINT('',(0.,0.,210.5));
#538=CARTESIAN_POINT('',(-20.6,0.,210.5));
#539=CARTESIAN_POINT('',(0.,20.5,210.5));
#540=CARTESIAN_POINT('',(0.,0.,209.5));
#541=CARTESIAN_POINT('',(27.5,0.,209.5));
#542=CARTESIAN_POINT('',(0.,0.,207.267326987979));
#543=CARTESIAN_POINT('',(-27.5,0.,207.267326987979));
#544=CARTESIAN_POINT('',(0.,0.,165.5));
#545=CARTESIAN_POINT('',(0.,0.,206.30140116169));
#546=CARTESIAN_POINT('',(-26.7588190451025,0.,206.30140116169));
#547=CARTESIAN_POINT('',(0.,0.,205.5));
#548=CARTESIAN_POINT('',(23.7679491924315,0.,205.5));
#549=CARTESIAN_POINT('',(0.,0.,206.5));
#550=CARTESIAN_POINT('',(0.,23.7679491924315,205.5));
#551=CARTESIAN_POINT('',(0.,0.,207.267326987979));
#552=CARTESIAN_POINT('',(0.,-4.90013464818102E-15,208.));
#553=CARTESIAN_POINT('',(-18.5,-4.90013464818102E-15,208.));
#554=CARTESIAN_POINT('',(0.,0.,208.));
#555=CARTESIAN_POINT('',(-20.6,0.,208.));
#556=CARTESIAN_POINT('',(0.,0.,208.));
#557=CARTESIAN_POINT('',(0.,0.,0.));
#558=CARTESIAN_POINT('',(0.,-3.57709829317205E-13,28.));
#559=CARTESIAN_POINT('',(0.,-22.2588334302526,28.0000000000001));
#560=CARTESIAN_POINT('',(0.,4.12223362528875E-29,28.));
#561=CARTESIAN_POINT('',(0.,-3.61358300260811E-13,26.1385863830495));
#562=CARTESIAN_POINT('',(0.,-27.0122458869976,26.1385863830496));
#563=CARTESIAN_POINT('',(0.,-3.71430206332111E-13,21.));
#564=CARTESIAN_POINT('',(0.,-4.04212243870348E-13,4.27493023563789));
#565=CARTESIAN_POINT('',(0.,-50.6475366986222,4.27493023563799));
#566=CARTESIAN_POINT('',(0.,-3.57709829317205E-13,28.));
#567=CARTESIAN_POINT('',(0.,-4.0031792049003E-13,6.26177532251927));
#568=CARTESIAN_POINT('',(0.,-58.4461626722138,6.26177532251938));
#569=CARTESIAN_POINT('',(0.,-4.02455846426619E-13,7.7944806937028));
#570=CARTESIAN_POINT('',(0.,-3.94288578695935E-13,9.33788558631258));
#571=CARTESIAN_POINT('',(0.,-62.1474013492474,9.3378855863127));
#572=CARTESIAN_POINT('',(0.,-4.16333634234434E-13,2.34327391057111));
#573=CARTESIAN_POINT('',(0.,-3.86539725063259E-13,13.2912737016536));
#574=CARTESIAN_POINT('',(0.,-64.8647215210074,13.2912737016537));
#575=CARTESIAN_POINT('',(0.,-3.88578058618805E-13,13.2912737016536));
#576=CARTESIAN_POINT('',(0.,-1.52884201023243E-13,132.5));
#577=CARTESIAN_POINT('',(0.,-64.864721521007,132.5));
#578=CARTESIAN_POINT('',(0.,-3.57709829317205E-13,28.));
#579=CARTESIAN_POINT('',(0.,-9.09393189043743E-14,164.103663249267));
#580=CARTESIAN_POINT('',(0.,-18.5000000000002,164.103663249267));
#581=CARTESIAN_POINT('',(0.,-1.52884201023243E-13,132.5));
#582=CARTESIAN_POINT('',(0.,-3.57709829317205E-13,28.));
#583=CARTESIAN_POINT('',(0.,0.,209.5));
#584=MECHANICAL_DESIGN_GEOMETRIC_PRESENTATION_REPRESENTATION('',(#24),#585);
#585=(
GEOMETRIC_REPRESENTATION_CONTEXT(3)
GLOBAL_UNCERTAINTY_ASSIGNED_CONTEXT((#586))
GLOBAL_UNIT_ASSIGNED_CONTEXT((#592,#588,#587))
REPRESENTATION_CONTEXT('Powder Container 2L','TOP_LEVEL_ASSEMBLY_PART')
);
#586=UNCERTAINTY_MEASURE_WITH_UNIT(LENGTH_MEASURE(2.E-5),#592,
'DISTANCE_ACCURACY_VALUE','Maximum Tolerance applied to model');
#587=(
NAMED_UNIT(*)
SI_UNIT($,.STERADIAN.)
SOLID_ANGLE_UNIT()
);
#588=(
CONVERSION_BASED_UNIT('DEGREE',#590)
NAMED_UNIT(#589)
PLANE_ANGLE_UNIT()
);
#589=DIMENSIONAL_EXPONENTS(0.,0.,0.,0.,0.,0.,0.);
#590=PLANE_ANGLE_MEASURE_WITH_UNIT(PLANE_ANGLE_MEASURE(0.0174532925),#591);
#591=(
NAMED_UNIT(*)
PLANE_ANGLE_UNIT()
SI_UNIT($,.RADIAN.)
);
#592=(
LENGTH_UNIT()
NAMED_UNIT(*)
SI_UNIT(.MILLI.,.METRE.)
);
ENDSEC;
END-ISO-10303-21;
