ISO-10303-21;
HEADER;
/* Generated by software containing ST-Developer
 * from STEP Tools, Inc. (www.steptools.com) 
 */
/* OPTION: using custom schema-name function */

FILE_DESCRIPTION(
/* description */ (''),
/* implementation_level */ '2;1');

FILE_NAME(
/* name */ 'Powder Container 10L.stp',
/* time_stamp */ '2022-06-10T08:55:11+02:00',
/* author */ (''),
/* organization */ (''),
/* preprocessor_version */ 'ST-DEVELOPER v18.1',
/* originating_system */ 'SIEMENS PLM Software NX 1973',
/* authorisation */ '');

FILE_SCHEMA (('AUTOMOTIVE_DESIGN { 1 0 10303 214 3 1 1 1 }'));
ENDSEC;

DATA;
#10=SHAPE_REPRESENTATION_RELATIONSHIP('None',
'relationship between 590825_00_Powder Container 10000cm3-None and 590
825_00_Powder Container 10000cm3-None',#22,#11);
#11=ADVANCED_BREP_SHAPE_REPRESENTATION(
'590825_00_Powder Container 10000cm3-None',(#32),#585);
#12=SHAPE_DEFINITION_REPRESENTATION(#13,#22);
#13=PRODUCT_DEFINITION_SHAPE('','',#14);
#14=PRODUCT_DEFINITION(' ','',#16,#15);
#15=PRODUCT_DEFINITION_CONTEXT('part definition',#21,'design');
#16=PRODUCT_DEFINITION_FORMATION_WITH_SPECIFIED_SOURCE(' ',' ',#18,
 .NOT_KNOWN.);
#17=PRODUCT_RELATED_PRODUCT_CATEGORY('part','',(#18));
#18=PRODUCT('590825_00_Powder Container 10000cm3',
'590825_00_Powder Container 10000cm3',' ',(#19));
#19=PRODUCT_CONTEXT(' ',#21,'mechanical');
#20=APPLICATION_PROTOCOL_DEFINITION('international standard',
'automotive_design',2010,#21);
#21=APPLICATION_CONTEXT(
'core data for automotive mechanical design processes');
#22=SHAPE_REPRESENTATION('590825_00_Powder Container 10000cm3-None',(#333),
#585);
#23=PRESENTATION_LAYER_ASSIGNMENT('1','Layer 1',(#32));
#24=STYLED_ITEM('',(#25),#32);
#25=PRESENTATION_STYLE_ASSIGNMENT((#26));
#26=SURFACE_STYLE_USAGE(.BOTH.,#27);
#27=SURFACE_SIDE_STYLE('',(#28));
#28=SURFACE_STYLE_FILL_AREA(#29);
#29=FILL_AREA_STYLE('',(#30));
#30=FILL_AREA_STYLE_COLOUR('',#31);
#31=COLOUR_RGB('orange',1.,0.500007629510948,0.);
#32=MANIFOLD_SOLID_BREP('',#33);
#33=CLOSED_SHELL('',(#58,#59,#60,#61,#62,#63,#64,#65,#66,#67,#68,#69,#70,
#71,#72,#73,#74,#75,#76,#77,#78,#79,#80,#81,#82,#83,#84,#85));
#34=CYLINDRICAL_SURFACE('',#348,87.5000000000001);
#35=CYLINDRICAL_SURFACE('',#356,20.5);
#36=CYLINDRICAL_SURFACE('',#363,27.5);
#37=CYLINDRICAL_SURFACE('',#384,18.5);
#38=TOROIDAL_SURFACE('',#340,62.1794919243112,20.);
#39=TOROIDAL_SURFACE('',#349,80.5,7.);
#40=TOROIDAL_SURFACE('',#350,80.3453940488962,1.5);
#41=TOROIDAL_SURFACE('',#351,19.6506618902533,10.);
#42=TOROIDAL_SURFACE('',#374,61.6394844469317,14.52897027398);
#43=TOROIDAL_SURFACE('',#377,78.4283550627317,4.41852009632808);
#44=TOROIDAL_SURFACE('',#379,77.4022325297878,6.16602395970331);
#45=TOROIDAL_SURFACE('',#385,21.2333805794385,10.);
#46=TOROIDAL_SURFACE('',#386,64.6824367256128,10.);
#47=TOROIDAL_SURFACE('',#387,26.5,1.);
#48=TOROIDAL_SURFACE('',#388,26.5,1.);
#49=PLANE('',#338);
#50=PLANE('',#343);
#51=PLANE('',#346);
#52=PLANE('',#357);
#53=PLANE('',#360);
#54=PLANE('',#367);
#55=PLANE('',#369);
#56=FACE_OUTER_BOUND('',#146,.T.);
#57=FACE_OUTER_BOUND('',#175,.T.);
#58=ADVANCED_FACE('',(#92,#93),#86,.F.);
#59=ADVANCED_FACE('',(#56),#49,.F.);
#60=ADVANCED_FACE('',(#94,#95),#38,.T.);
#61=ADVANCED_FACE('',(#96,#97),#50,.F.);
#62=ADVANCED_FACE('',(#98,#99),#51,.T.);
#63=ADVANCED_FACE('',(#100,#101),#34,.T.);
#64=ADVANCED_FACE('',(#102,#103),#39,.T.);
#65=ADVANCED_FACE('',(#104,#105),#40,.F.);
#66=ADVANCED_FACE('',(#106,#107),#41,.F.);
#67=ADVANCED_FACE('',(#108,#109),#87,.T.);
#68=ADVANCED_FACE('',(#110,#111),#35,.T.);
#69=ADVANCED_FACE('',(#112,#113),#52,.F.);
#70=ADVANCED_FACE('',(#114,#115),#53,.F.);
#71=ADVANCED_FACE('',(#116,#117),#36,.T.);
#72=ADVANCED_FACE('',(#118,#119),#88,.T.);
#73=ADVANCED_FACE('',(#120,#121),#54,.F.);
#74=ADVANCED_FACE('',(#57),#55,.F.);
#75=ADVANCED_FACE('',(#122,#123),#89,.T.);
#76=ADVANCED_FACE('',(#124,#125),#42,.F.);
#77=ADVANCED_FACE('',(#126,#127),#43,.T.);
#78=ADVANCED_FACE('',(#128,#129),#44,.F.);
#79=ADVANCED_FACE('',(#130,#131),#90,.F.);
#80=ADVANCED_FACE('',(#132,#133),#91,.F.);
#81=ADVANCED_FACE('',(#134,#135),#37,.F.);
#82=ADVANCED_FACE('',(#136,#137),#45,.T.);
#83=ADVANCED_FACE('',(#138,#139),#46,.F.);
#84=ADVANCED_FACE('',(#140,#141),#47,.T.);
#85=ADVANCED_FACE('',(#142,#143),#48,.T.);
#86=CONICAL_SURFACE('',#336,48.7691970402213,47.893194555208);
#87=CONICAL_SURFACE('',#353,19.9999999999999,60.4498359806566);
#88=CONICAL_SURFACE('',#366,27.5,75.0000000000004);
#89=CONICAL_SURFACE('',#372,25.,48.7210357888655);
#90=CONICAL_SURFACE('',#381,83.4683021226592,0.00447109967726112);
#91=CONICAL_SURFACE('',#383,83.5000000000002,60.612795793868);
#92=FACE_BOUND('',#144,.T.);
#93=FACE_BOUND('',#145,.T.);
#94=FACE_BOUND('',#147,.T.);
#95=FACE_BOUND('',#148,.T.);
#96=FACE_BOUND('',#149,.T.);
#97=FACE_BOUND('',#150,.T.);
#98=FACE_BOUND('',#151,.T.);
#99=FACE_BOUND('',#152,.T.);
#100=FACE_BOUND('',#153,.T.);
#101=FACE_BOUND('',#154,.T.);
#102=FACE_BOUND('',#155,.T.);
#103=FACE_BOUND('',#156,.T.);
#104=FACE_BOUND('',#157,.T.);
#105=FACE_BOUND('',#158,.T.);
#106=FACE_BOUND('',#159,.T.);
#107=FACE_BOUND('',#160,.T.);
#108=FACE_BOUND('',#161,.T.);
#109=FACE_BOUND('',#162,.T.);
#110=FACE_BOUND('',#163,.T.);
#111=FACE_BOUND('',#164,.T.);
#112=FACE_BOUND('',#165,.T.);
#113=FACE_BOUND('',#166,.T.);
#114=FACE_BOUND('',#167,.T.);
#115=FACE_BOUND('',#168,.T.);
#116=FACE_BOUND('',#169,.T.);
#117=FACE_BOUND('',#170,.T.);
#118=FACE_BOUND('',#171,.T.);
#119=FACE_BOUND('',#172,.T.);
#120=FACE_BOUND('',#173,.T.);
#121=FACE_BOUND('',#174,.T.);
#122=FACE_BOUND('',#176,.T.);
#123=FACE_BOUND('',#177,.T.);
#124=FACE_BOUND('',#178,.T.);
#125=FACE_BOUND('',#179,.T.);
#126=FACE_BOUND('',#180,.T.);
#127=FACE_BOUND('',#181,.T.);
#128=FACE_BOUND('',#182,.T.);
#129=FACE_BOUND('',#183,.T.);
#130=FACE_BOUND('',#184,.T.);
#131=FACE_BOUND('',#185,.T.);
#132=FACE_BOUND('',#186,.T.);
#133=FACE_BOUND('',#187,.T.);
#134=FACE_BOUND('',#188,.T.);
#135=FACE_BOUND('',#189,.T.);
#136=FACE_BOUND('',#190,.T.);
#137=FACE_BOUND('',#191,.T.);
#138=FACE_BOUND('',#192,.T.);
#139=FACE_BOUND('',#193,.T.);
#140=FACE_BOUND('',#194,.T.);
#141=FACE_BOUND('',#195,.T.);
#142=FACE_BOUND('',#196,.T.);
#143=FACE_BOUND('',#197,.T.);
#144=EDGE_LOOP('',(#198));
#145=EDGE_LOOP('',(#199));
#146=EDGE_LOOP('',(#200));
#147=EDGE_LOOP('',(#201));
#148=EDGE_LOOP('',(#202));
#149=EDGE_LOOP('',(#203));
#150=EDGE_LOOP('',(#204));
#151=EDGE_LOOP('',(#205));
#152=EDGE_LOOP('',(#206));
#153=EDGE_LOOP('',(#207));
#154=EDGE_LOOP('',(#208));
#155=EDGE_LOOP('',(#209));
#156=EDGE_LOOP('',(#210));
#157=EDGE_LOOP('',(#211));
#158=EDGE_LOOP('',(#212));
#159=EDGE_LOOP('',(#213));
#160=EDGE_LOOP('',(#214));
#161=EDGE_LOOP('',(#215));
#162=EDGE_LOOP('',(#216));
#163=EDGE_LOOP('',(#217));
#164=EDGE_LOOP('',(#218));
#165=EDGE_LOOP('',(#219));
#166=EDGE_LOOP('',(#220));
#167=EDGE_LOOP('',(#221));
#168=EDGE_LOOP('',(#222));
#169=EDGE_LOOP('',(#223));
#170=EDGE_LOOP('',(#224));
#171=EDGE_LOOP('',(#225));
#172=EDGE_LOOP('',(#226));
#173=EDGE_LOOP('',(#227));
#174=EDGE_LOOP('',(#228));
#175=EDGE_LOOP('',(#229));
#176=EDGE_LOOP('',(#230));
#177=EDGE_LOOP('',(#231));
#178=EDGE_LOOP('',(#232));
#179=EDGE_LOOP('',(#233));
#180=EDGE_LOOP('',(#234));
#181=EDGE_LOOP('',(#235));
#182=EDGE_LOOP('',(#236));
#183=EDGE_LOOP('',(#237));
#184=EDGE_LOOP('',(#238));
#185=EDGE_LOOP('',(#239));
#186=EDGE_LOOP('',(#240));
#187=EDGE_LOOP('',(#241));
#188=EDGE_LOOP('',(#242));
#189=EDGE_LOOP('',(#243));
#190=EDGE_LOOP('',(#244));
#191=EDGE_LOOP('',(#245));
#192=EDGE_LOOP('',(#246));
#193=EDGE_LOOP('',(#247));
#194=EDGE_LOOP('',(#248));
#195=EDGE_LOOP('',(#249));
#196=EDGE_LOOP('',(#250));
#197=EDGE_LOOP('',(#251));
#198=ORIENTED_EDGE('',*,*,#279,.T.);
#199=ORIENTED_EDGE('',*,*,#280,.F.);
#200=ORIENTED_EDGE('',*,*,#281,.T.);
#201=ORIENTED_EDGE('',*,*,#282,.T.);
#202=ORIENTED_EDGE('',*,*,#280,.T.);
#203=ORIENTED_EDGE('',*,*,#283,.T.);
#204=ORIENTED_EDGE('',*,*,#284,.T.);
#205=ORIENTED_EDGE('',*,*,#285,.T.);
#206=ORIENTED_EDGE('',*,*,#286,.T.);
#207=ORIENTED_EDGE('',*,*,#287,.T.);
#208=ORIENTED_EDGE('',*,*,#286,.F.);
#209=ORIENTED_EDGE('',*,*,#287,.F.);
#210=ORIENTED_EDGE('',*,*,#284,.F.);
#211=ORIENTED_EDGE('',*,*,#283,.F.);
#212=ORIENTED_EDGE('',*,*,#282,.F.);
#213=ORIENTED_EDGE('',*,*,#281,.F.);
#214=ORIENTED_EDGE('',*,*,#279,.F.);
#215=ORIENTED_EDGE('',*,*,#285,.F.);
#216=ORIENTED_EDGE('',*,*,#288,.T.);
#217=ORIENTED_EDGE('',*,*,#289,.F.);
#218=ORIENTED_EDGE('',*,*,#290,.T.);
#219=ORIENTED_EDGE('',*,*,#288,.F.);
#220=ORIENTED_EDGE('',*,*,#289,.T.);
#221=ORIENTED_EDGE('',*,*,#291,.T.);
#222=ORIENTED_EDGE('',*,*,#292,.T.);
#223=ORIENTED_EDGE('',*,*,#293,.T.);
#224=ORIENTED_EDGE('',*,*,#294,.T.);
#225=ORIENTED_EDGE('',*,*,#295,.T.);
#226=ORIENTED_EDGE('',*,*,#296,.F.);
#227=ORIENTED_EDGE('',*,*,#290,.F.);
#228=ORIENTED_EDGE('',*,*,#296,.T.);
#229=ORIENTED_EDGE('',*,*,#297,.T.);
#230=ORIENTED_EDGE('',*,*,#298,.T.);
#231=ORIENTED_EDGE('',*,*,#299,.T.);
#232=ORIENTED_EDGE('',*,*,#300,.T.);
#233=ORIENTED_EDGE('',*,*,#299,.F.);
#234=ORIENTED_EDGE('',*,*,#301,.T.);
#235=ORIENTED_EDGE('',*,*,#302,.T.);
#236=ORIENTED_EDGE('',*,*,#303,.T.);
#237=ORIENTED_EDGE('',*,*,#302,.F.);
#238=ORIENTED_EDGE('',*,*,#304,.T.);
#239=ORIENTED_EDGE('',*,*,#303,.F.);
#240=ORIENTED_EDGE('',*,*,#305,.T.);
#241=ORIENTED_EDGE('',*,*,#304,.F.);
#242=ORIENTED_EDGE('',*,*,#292,.F.);
#243=ORIENTED_EDGE('',*,*,#305,.F.);
#244=ORIENTED_EDGE('',*,*,#298,.F.);
#245=ORIENTED_EDGE('',*,*,#297,.F.);
#246=ORIENTED_EDGE('',*,*,#301,.F.);
#247=ORIENTED_EDGE('',*,*,#300,.F.);
#248=ORIENTED_EDGE('',*,*,#291,.F.);
#249=ORIENTED_EDGE('',*,*,#293,.F.);
#250=ORIENTED_EDGE('',*,*,#294,.F.);
#251=ORIENTED_EDGE('',*,*,#295,.F.);
#252=VERTEX_POINT('',#503);
#253=VERTEX_POINT('',#505);
#254=VERTEX_POINT('',#508);
#255=VERTEX_POINT('',#511);
#256=VERTEX_POINT('',#514);
#257=VERTEX_POINT('',#516);
#258=VERTEX_POINT('',#519);
#259=VERTEX_POINT('',#521);
#260=VERTEX_POINT('',#524);
#261=VERTEX_POINT('',#530);
#262=VERTEX_POINT('',#533);
#263=VERTEX_POINT('',#535);
#264=VERTEX_POINT('',#539);
#265=VERTEX_POINT('',#541);
#266=VERTEX_POINT('',#544);
#267=VERTEX_POINT('',#546);
#268=VERTEX_POINT('',#549);
#269=VERTEX_POINT('',#551);
#270=VERTEX_POINT('',#555);
#271=VERTEX_POINT('',#558);
#272=VERTEX_POINT('',#560);
#273=VERTEX_POINT('',#563);
#274=VERTEX_POINT('',#566);
#275=VERTEX_POINT('',#568);
#276=VERTEX_POINT('',#571);
#277=VERTEX_POINT('',#574);
#278=VERTEX_POINT('',#577);
#279=EDGE_CURVE('',#252,#252,#306,.T.);
#280=EDGE_CURVE('',#253,#253,#307,.T.);
#281=EDGE_CURVE('',#254,#254,#308,.T.);
#282=EDGE_CURVE('',#255,#255,#309,.T.);
#283=EDGE_CURVE('',#256,#256,#310,.T.);
#284=EDGE_CURVE('',#257,#257,#311,.T.);
#285=EDGE_CURVE('',#258,#258,#312,.T.);
#286=EDGE_CURVE('',#259,#259,#313,.T.);
#287=EDGE_CURVE('',#260,#260,#314,.T.);
#288=EDGE_CURVE('',#261,#261,#315,.T.);
#289=EDGE_CURVE('',#262,#262,#316,.T.);
#290=EDGE_CURVE('',#263,#263,#317,.T.);
#291=EDGE_CURVE('',#264,#264,#318,.T.);
#292=EDGE_CURVE('',#265,#265,#319,.T.);
#293=EDGE_CURVE('',#266,#266,#320,.T.);
#294=EDGE_CURVE('',#267,#267,#321,.T.);
#295=EDGE_CURVE('',#268,#268,#322,.T.);
#296=EDGE_CURVE('',#269,#269,#323,.T.);
#297=EDGE_CURVE('',#270,#270,#324,.T.);
#298=EDGE_CURVE('',#271,#271,#325,.T.);
#299=EDGE_CURVE('',#272,#272,#326,.T.);
#300=EDGE_CURVE('',#273,#273,#327,.T.);
#301=EDGE_CURVE('',#274,#274,#328,.T.);
#302=EDGE_CURVE('',#275,#275,#329,.T.);
#303=EDGE_CURVE('',#276,#276,#330,.T.);
#304=EDGE_CURVE('',#277,#277,#331,.T.);
#305=EDGE_CURVE('',#278,#278,#332,.T.);
#306=CIRCLE('',#334,26.3558093322983);
#307=CIRCLE('',#335,48.7691970402213);
#308=CIRCLE('',#337,19.6506618902533);
#309=CIRCLE('',#339,79.0780055285763);
#310=CIRCLE('',#341,80.3453940488962);
#311=CIRCLE('',#342,80.5);
#312=CIRCLE('',#344,83.5);
#313=CIRCLE('',#345,87.5000000000001);
#314=CIRCLE('',#347,87.5000000000001);
#315=CIRCLE('',#352,19.9999999999999);
#316=CIRCLE('',#354,20.5);
#317=CIRCLE('',#355,20.5);
#318=CIRCLE('',#358,26.5);
#319=CIRCLE('',#359,18.5);
#320=CIRCLE('',#361,27.5);
#321=CIRCLE('',#362,27.5);
#322=CIRCLE('',#364,26.7588190451025);
#323=CIRCLE('',#365,23.767949192431);
#324=CIRCLE('',#368,21.2333805794385);
#325=CIRCLE('',#370,27.8306385947758);
#326=CIRCLE('',#371,54.3276525641255);
#327=CIRCLE('',#373,71.4012979558655);
#328=CIRCLE('',#375,74.2159521247554);
#329=CIRCLE('',#376,78.);
#330=CIRCLE('',#378,83.4683021226592);
#331=CIRCLE('',#380,83.5000000000002);
#332=CIRCLE('',#382,18.5);
#333=AXIS2_PLACEMENT_3D('',#501,#389,#390);
#334=AXIS2_PLACEMENT_3D('',#502,#391,#392);
#335=AXIS2_PLACEMENT_3D('',#504,#393,#394);
#336=AXIS2_PLACEMENT_3D('',#506,#395,#396);
#337=AXIS2_PLACEMENT_3D('',#507,#397,#398);
#338=AXIS2_PLACEMENT_3D('',#509,#399,#400);
#339=AXIS2_PLACEMENT_3D('',#510,#401,#402);
#340=AXIS2_PLACEMENT_3D('',#512,#403,#404);
#341=AXIS2_PLACEMENT_3D('',#513,#405,#406);
#342=AXIS2_PLACEMENT_3D('',#515,#407,#408);
#343=AXIS2_PLACEMENT_3D('',#517,#409,#410);
#344=AXIS2_PLACEMENT_3D('',#518,#411,#412);
#345=AXIS2_PLACEMENT_3D('',#520,#413,#414);
#346=AXIS2_PLACEMENT_3D('',#522,#415,#416);
#347=AXIS2_PLACEMENT_3D('',#523,#417,#418);
#348=AXIS2_PLACEMENT_3D('',#525,#419,#420);
#349=AXIS2_PLACEMENT_3D('',#526,#421,#422);
#350=AXIS2_PLACEMENT_3D('',#527,#423,#424);
#351=AXIS2_PLACEMENT_3D('',#528,#425,#426);
#352=AXIS2_PLACEMENT_3D('',#529,#427,#428);
#353=AXIS2_PLACEMENT_3D('',#531,#429,#430);
#354=AXIS2_PLACEMENT_3D('',#532,#431,#432);
#355=AXIS2_PLACEMENT_3D('',#534,#433,#434);
#356=AXIS2_PLACEMENT_3D('',#536,#435,#436);
#357=AXIS2_PLACEMENT_3D('',#537,#437,#438);
#358=AXIS2_PLACEMENT_3D('',#538,#439,#440);
#359=AXIS2_PLACEMENT_3D('',#540,#441,#442);
#360=AXIS2_PLACEMENT_3D('',#542,#443,#444);
#361=AXIS2_PLACEMENT_3D('',#543,#445,#446);
#362=AXIS2_PLACEMENT_3D('',#545,#447,#448);
#363=AXIS2_PLACEMENT_3D('',#547,#449,#450);
#364=AXIS2_PLACEMENT_3D('',#548,#451,#452);
#365=AXIS2_PLACEMENT_3D('',#550,#453,#454);
#366=AXIS2_PLACEMENT_3D('',#552,#455,#456);
#367=AXIS2_PLACEMENT_3D('',#553,#457,#458);
#368=AXIS2_PLACEMENT_3D('',#554,#459,#460);
#369=AXIS2_PLACEMENT_3D('',#556,#461,#462);
#370=AXIS2_PLACEMENT_3D('',#557,#463,#464);
#371=AXIS2_PLACEMENT_3D('',#559,#465,#466);
#372=AXIS2_PLACEMENT_3D('',#561,#467,#468);
#373=AXIS2_PLACEMENT_3D('',#562,#469,#470);
#374=AXIS2_PLACEMENT_3D('',#564,#471,#472);
#375=AXIS2_PLACEMENT_3D('',#565,#473,#474);
#376=AXIS2_PLACEMENT_3D('',#567,#475,#476);
#377=AXIS2_PLACEMENT_3D('',#569,#477,#478);
#378=AXIS2_PLACEMENT_3D('',#570,#479,#480);
#379=AXIS2_PLACEMENT_3D('',#572,#481,#482);
#380=AXIS2_PLACEMENT_3D('',#573,#483,#484);
#381=AXIS2_PLACEMENT_3D('',#575,#485,#486);
#382=AXIS2_PLACEMENT_3D('',#576,#487,#488);
#383=AXIS2_PLACEMENT_3D('',#578,#489,#490);
#384=AXIS2_PLACEMENT_3D('',#579,#491,#492);
#385=AXIS2_PLACEMENT_3D('',#580,#493,#494);
#386=AXIS2_PLACEMENT_3D('',#581,#495,#496);
#387=AXIS2_PLACEMENT_3D('',#582,#497,#498);
#388=AXIS2_PLACEMENT_3D('',#583,#499,#500);
#389=DIRECTION('',(0.,0.,1.));
#390=DIRECTION('',(1.,0.,0.));
#391=DIRECTION('',(0.,0.,1.));
#392=DIRECTION('',(-1.,0.,0.));
#393=DIRECTION('',(0.,0.,1.));
#394=DIRECTION('',(-1.,0.,0.));
#395=DIRECTION('',(0.,0.,-1.));
#396=DIRECTION('',(-1.,0.,2.25244513627577E-17));
#397=DIRECTION('',(0.,0.,-1.));
#398=DIRECTION('',(1.,0.,0.));
#399=DIRECTION('',(0.,0.,1.));
#400=DIRECTION('',(1.,0.,0.));
#401=DIRECTION('',(0.,0.,-1.));
#402=DIRECTION('',(1.,0.,0.));
#403=DIRECTION('',(0.,0.,-1.));
#404=DIRECTION('',(-1.,0.,0.));
#405=DIRECTION('',(0.,0.,1.));
#406=DIRECTION('',(1.,0.,0.));
#407=DIRECTION('',(0.,0.,-1.));
#408=DIRECTION('',(1.,0.,0.));
#409=DIRECTION('',(0.,0.,1.));
#410=DIRECTION('',(1.,0.,0.));
#411=DIRECTION('',(0.,0.,-1.));
#412=DIRECTION('',(-1.,0.,0.));
#413=DIRECTION('',(0.,0.,1.));
#414=DIRECTION('',(1.,0.,0.));
#415=DIRECTION('',(0.,0.,1.));
#416=DIRECTION('',(1.,0.,0.));
#417=DIRECTION('',(0.,0.,1.));
#418=DIRECTION('',(1.,0.,0.));
#419=DIRECTION('',(0.,0.,1.));
#420=DIRECTION('',(1.,0.,0.));
#421=DIRECTION('',(0.,0.,1.));
#422=DIRECTION('',(1.,0.,0.));
#423=DIRECTION('',(0.,0.,1.));
#424=DIRECTION('',(1.,0.,0.));
#425=DIRECTION('',(0.,0.,1.));
#426=DIRECTION('',(1.,0.,0.));
#427=DIRECTION('',(0.,0.,-1.));
#428=DIRECTION('',(-1.,0.,0.));
#429=DIRECTION('',(0.,0.,-1.));
#430=DIRECTION('',(-1.,0.,0.));
#431=DIRECTION('',(0.,0.,-1.));
#432=DIRECTION('',(-1.,0.,0.));
#433=DIRECTION('',(0.,0.,-1.));
#434=DIRECTION('',(-1.,0.,0.));
#435=DIRECTION('',(0.,0.,-1.));
#436=DIRECTION('',(-1.,0.,0.));
#437=DIRECTION('',(0.,0.,1.));
#438=DIRECTION('',(1.,0.,0.));
#439=DIRECTION('',(0.,0.,1.));
#440=DIRECTION('',(-1.,0.,0.));
#441=DIRECTION('',(0.,0.,-1.));
#442=DIRECTION('',(-1.,0.,0.));
#443=DIRECTION('',(0.,0.,-1.));
#444=DIRECTION('',(-1.,0.,0.));
#445=DIRECTION('',(0.,0.,-1.));
#446=DIRECTION('',(-1.,0.,0.));
#447=DIRECTION('',(0.,0.,1.));
#448=DIRECTION('',(1.,0.,0.));
#449=DIRECTION('',(0.,0.,-1.));
#450=DIRECTION('',(-1.,0.,0.));
#451=DIRECTION('',(0.,0.,-1.));
#452=DIRECTION('',(-1.,0.,0.));
#453=DIRECTION('',(0.,0.,-1.));
#454=DIRECTION('',(-1.,0.,0.));
#455=DIRECTION('',(0.,0.,1.));
#456=DIRECTION('',(1.,0.,0.));
#457=DIRECTION('',(0.,0.,1.));
#458=DIRECTION('',(1.,0.,0.));
#459=DIRECTION('',(0.,0.,1.));
#460=DIRECTION('',(-1.,0.,0.));
#461=DIRECTION('',(0.,0.,-1.));
#462=DIRECTION('',(-1.,0.,0.));
#463=DIRECTION('',(0.,0.,-1.));
#464=DIRECTION('',(1.,0.,0.));
#465=DIRECTION('',(0.,0.,1.));
#466=DIRECTION('',(-1.,0.,0.));
#467=DIRECTION('',(0.,0.,-1.));
#468=DIRECTION('',(-1.,0.,2.38425524171447E-17));
#469=DIRECTION('',(0.,0.,1.));
#470=DIRECTION('',(1.,0.,0.));
#471=DIRECTION('',(0.,0.,-1.));
#472=DIRECTION('',(-1.,0.,0.));
#473=DIRECTION('',(0.,0.,-1.));
#474=DIRECTION('',(-1.,0.,0.));
#475=DIRECTION('',(0.,0.,1.));
#476=DIRECTION('',(-1.,0.,0.));
#477=DIRECTION('',(0.,0.,-1.));
#478=DIRECTION('',(-1.,0.,0.));
#479=DIRECTION('',(0.,0.,1.));
#480=DIRECTION('',(-1.,0.,0.));
#481=DIRECTION('',(0.,0.,-1.));
#482=DIRECTION('',(-1.,0.,0.));
#483=DIRECTION('',(0.,0.,1.));
#484=DIRECTION('',(-1.,0.,0.));
#485=DIRECTION('',(0.,0.,1.));
#486=DIRECTION('',(1.,0.,-4.98326613142244E-16));
#487=DIRECTION('',(0.,0.,1.));
#488=DIRECTION('',(-1.,0.,0.));
#489=DIRECTION('',(0.,0.,-1.));
#490=DIRECTION('',(-1.,0.,0.));
#491=DIRECTION('',(0.,0.,-1.));
#492=DIRECTION('',(-1.,0.,0.));
#493=DIRECTION('',(0.,0.,-1.));
#494=DIRECTION('',(-1.,0.,0.));
#495=DIRECTION('',(0.,0.,1.));
#496=DIRECTION('',(1.,0.,0.));
#497=DIRECTION('',(0.,0.,-1.));
#498=DIRECTION('',(-1.,0.,0.));
#499=DIRECTION('',(0.,0.,1.));
#500=DIRECTION('',(1.,0.,0.));
#501=CARTESIAN_POINT('',(0.,0.,0.));
#502=CARTESIAN_POINT('',(0.,0.,25.4189620419866));
#503=CARTESIAN_POINT('',(-26.3558093322983,0.,25.4189620419866));
#504=CARTESIAN_POINT('',(0.,0.,5.16207591602677));
#505=CARTESIAN_POINT('',(-48.7691970402213,0.,5.16207591602677));
#506=CARTESIAN_POINT('',(0.,0.,5.16207591602677));
#507=CARTESIAN_POINT('',(0.,0.,28.));
#508=CARTESIAN_POINT('',(19.6506618902533,0.,28.));
#509=CARTESIAN_POINT('',(0.,23.5,28.));
#510=CARTESIAN_POINT('',(0.,0.,9.30232558139541));
#511=CARTESIAN_POINT('',(79.0780055285763,0.,9.30232558139541));
#512=CARTESIAN_POINT('',(0.,0.,20.));
#513=CARTESIAN_POINT('',(0.,0.,10.0000000000001));
#514=CARTESIAN_POINT('',(80.3453940488962,0.,10.0000000000001));
#515=CARTESIAN_POINT('',(0.,0.,10.0000000000001));
#516=CARTESIAN_POINT('',(80.5,0.,10.0000000000001));
#517=CARTESIAN_POINT('',(0.,87.5,10.0000000000001));
#518=CARTESIAN_POINT('',(0.,0.,430.5));
#519=CARTESIAN_POINT('',(-83.5,0.,430.5));
#520=CARTESIAN_POINT('',(0.,0.,430.5));
#521=CARTESIAN_POINT('',(87.5000000000001,0.,430.5));
#522=CARTESIAN_POINT('',(0.,0.,430.5));
#523=CARTESIAN_POINT('',(0.,0.,17.0000000000001));
#524=CARTESIAN_POINT('',(87.5000000000001,0.,17.0000000000001));
#525=CARTESIAN_POINT('',(0.,0.,0.));
#526=CARTESIAN_POINT('',(0.,0.,17.0000000000001));
#527=CARTESIAN_POINT('',(0.,0.,8.50000000000007));
#528=CARTESIAN_POINT('',(0.,0.,18.));
#529=CARTESIAN_POINT('',(0.,0.,466.5));
#530=CARTESIAN_POINT('',(-19.9999999999999,0.,466.5));
#531=CARTESIAN_POINT('',(0.,0.,466.5));
#532=CARTESIAN_POINT('',(0.,0.,466.5));
#533=CARTESIAN_POINT('',(-20.5,0.,466.5));
#534=CARTESIAN_POINT('',(0.,0.,506.5));
#535=CARTESIAN_POINT('',(-20.5,0.,506.5));
#536=CARTESIAN_POINT('',(0.,0.,0.));
#537=CARTESIAN_POINT('',(0.,20.5,466.5));
#538=CARTESIAN_POINT('',(0.,0.,511.5));
#539=CARTESIAN_POINT('',(-26.5,0.,511.5));
#540=CARTESIAN_POINT('',(0.,0.,511.5));
#541=CARTESIAN_POINT('',(-18.5,0.,511.5));
#542=CARTESIAN_POINT('',(0.,20.,511.5));
#543=CARTESIAN_POINT('',(0.,0.,510.5));
#544=CARTESIAN_POINT('',(-27.5,0.,510.5));
#545=CARTESIAN_POINT('',(0.,0.,508.267326987979));
#546=CARTESIAN_POINT('',(27.5,0.,508.267326987979));
#547=CARTESIAN_POINT('',(0.,0.,0.));
#548=CARTESIAN_POINT('',(0.,0.,507.30140116169));
#549=CARTESIAN_POINT('',(-26.7588190451025,0.,507.30140116169));
#550=CARTESIAN_POINT('',(0.,0.,506.5));
#551=CARTESIAN_POINT('',(-23.767949192431,0.,506.5));
#552=CARTESIAN_POINT('',(0.,0.,507.5));
#553=CARTESIAN_POINT('',(0.,23.767949192431,506.5));
#554=CARTESIAN_POINT('',(0.,0.,32.));
#555=CARTESIAN_POINT('',(-21.2333805794385,0.,32.));
#556=CARTESIAN_POINT('',(0.,0.,32.));
#557=CARTESIAN_POINT('',(0.,0.,29.5150639836975));
#558=CARTESIAN_POINT('',(27.8306385947758,0.,29.5150639836975));
#559=CARTESIAN_POINT('',(0.,0.,6.25409931712823));
#560=CARTESIAN_POINT('',(-54.3276525641255,0.,6.25409931712823));
#561=CARTESIAN_POINT('',(0.,0.,32.));
#562=CARTESIAN_POINT('',(0.,0.,8.04815525835509));
#563=CARTESIAN_POINT('',(71.4012979558655,0.,8.04815525835509));
#564=CARTESIAN_POINT('',(0.,0.,18.8091019750241));
#565=CARTESIAN_POINT('',(0.,0.,12.4360770291318));
#566=CARTESIAN_POINT('',(-74.2159521247554,0.,12.4360770291318));
#567=CARTESIAN_POINT('',(0.,0.,15.5));
#568=CARTESIAN_POINT('',(-78.,0.,15.5));
#569=CARTESIAN_POINT('',(0.,0.,11.1022924401585));
#570=CARTESIAN_POINT('',(0.,0.,20.5312445862496));
#571=CARTESIAN_POINT('',(-83.4683021226592,0.,20.5312445862496));
#572=CARTESIAN_POINT('',(0.,0.,21.636980163174));
#573=CARTESIAN_POINT('',(0.,0.,426.729879949093));
#574=CARTESIAN_POINT('',(-83.5000000000002,0.,426.729879949093));
#575=CARTESIAN_POINT('',(0.,0.,20.5312445862496));
#576=CARTESIAN_POINT('',(0.,0.,463.336374750891));
#577=CARTESIAN_POINT('',(-18.5,0.,463.336374750891));
#578=CARTESIAN_POINT('',(0.,0.,426.729879949093));
#579=CARTESIAN_POINT('',(0.,0.,0.));
#580=CARTESIAN_POINT('',(0.,0.,22.));
#581=CARTESIAN_POINT('',(0.,0.,15.454699916197));
#582=CARTESIAN_POINT('',(0.,0.,510.5));
#583=CARTESIAN_POINT('',(0.,0.,508.267326987979));
#584=MECHANICAL_DESIGN_GEOMETRIC_PRESENTATION_REPRESENTATION('',(#24),#585);
#585=(
GEOMETRIC_REPRESENTATION_CONTEXT(3)
GLOBAL_UNCERTAINTY_ASSIGNED_CONTEXT((#586))
GLOBAL_UNIT_ASSIGNED_CONTEXT((#592,#588,#587))
REPRESENTATION_CONTEXT('Powder Container 10L','TOP_LEVEL_ASSEMBLY_PART')
);
#586=UNCERTAINTY_MEASURE_WITH_UNIT(LENGTH_MEASURE(2.E-5),#592,
'DISTANCE_ACCURACY_VALUE','Maximum Tolerance applied to model');
#587=(
NAMED_UNIT(*)
SI_UNIT($,.STERADIAN.)
SOLID_ANGLE_UNIT()
);
#588=(
CONVERSION_BASED_UNIT('DEGREE',#590)
NAMED_UNIT(#589)
PLANE_ANGLE_UNIT()
);
#589=DIMENSIONAL_EXPONENTS(0.,0.,0.,0.,0.,0.,0.);
#590=PLANE_ANGLE_MEASURE_WITH_UNIT(PLANE_ANGLE_MEASURE(0.0174532925),#591);
#591=(
NAMED_UNIT(*)
PLANE_ANGLE_UNIT()
SI_UNIT($,.RADIAN.)
);
#592=(
LENGTH_UNIT()
NAMED_UNIT(*)
SI_UNIT(.MILLI.,.METRE.)
);
ENDSEC;
END-ISO-10303-21;
